Табулатура «Damnation» для гитары

Автор табулатуры — Вассилис Бекиарис (Vassilis Bekiaris, el94101[собака]zeus.central.ntua.gr).

Примечание автора: «Это одна из самых простых песен Fates, но всё же слух может подвести. Так что это — лучшее, что я мог. Я не транскрибировал соло, бенды, хаммеры и т.д... Но чего вы от меня хотите, я играю только на пианино. Примечания, заключённые в скобки, означают, что я не был насчёт них уверен. Удачи с песней».

Вступление, вторая гитара играет флажолет.

E----------------------------------|---------------------------------|--------
B--------------0---------------0---|-------------0---------------0---|--------
G----0-------0---0---0-------0---0-|---0-------0---0---0-------0---0-|--------
D------4---4-----------4---4-------|-----4---4-----------4---4-------|--------
A--------2---------------2---------|-------2---------------2---------|--------
E--0---------------0---------------|-0---------------0---------------|--------

(Не уверен насчёт этого момента)
E----------------------------------|---------------------------------|--------
B----0-----0---------0-----0-------|-------------0---------------0---|--------
G------0-----0---0-----------------|---0-------0---0---0-------0---0-|--------
D-----(0)---(0)--------0-----0-----|-----4---4-----------4---4-------|--------
A--3-----3-----3---2-----2---------|-------2---------------2---------|--------
E------------------------------3-2-|-0---------------0---------------|--------

   [Фигура 1]
   Thou- sands of years         be- fore        the dawn      of histo-
E----------------------------------|---------------------------------|---------
B--------------0---------------0---|---0-----0---------0-----0-------|---------
G----0-------0---0---0-------0---0-|-----0-----0---0-----------------|---------
D------4---4-----------4---4-------|---------------------0-----0-----|---------
A--------2---------------2---------|-3-----3-----3---2-----2---------|---------
E--0---------------0---------------|-----------------------------3-2-|---------

                        [Конец фигуры 1]
  ry                         (Where )
E----------------------------------|-Повтор фигуры 1---------------------------
B--------------0---------------0---|-'Ancient races tears ...'-----------------
G----0-------0---0---0-------0---0-|-В конце повтора:where sacred..------------
D------4---4-----------4---4-------|-------------------------------------------
A--------2---------------2---------|-------------------------------------------
E--0---------------0---------------|-------------------------------------------

 [Фигура 2]
   sacred river   ran         white deer had  roamed the land
E----------------------------------|---------------------------------|---------
B----------------------------------|---------------------------------|---------
G------0-------0-------0-------0---|-----0-------0-------0-------0---|---------
D----4---4---4---4---4---4---4---4-|---4---4---4---4---4---4---4---4-|---------
A----------5-------7-------5-------|---------5-------7-------5-------|---------
E--0-------------------------------|-0-------------------------------|---------

                                                         [Конец фигуры 2]
  brilliant twilight       in our    dreams
E----------------------------------|---------------------------------|---------
B----------------------------------|-------------0---------------0---|---------
G------0-------0-------------------|---0-------0---0---0-------0---0-|---------
D----0---0---0---0-----0-------0---|-----4---4-----------4---4-------|---------
A--3-------2---------0-------0-----|-------2---------------2---------|---------
E------------------3-----3-2-----2-|-0---------------0---------------|---------

E--Повтор фиг. 1--------|-Повтор фиг. 2------|--------------------------------|
B--'primitive child...'-|-'A myth without..'-|-------------0---------------0--|
G--'descendants we ...'-|--------------------|---0-------0---0---0-------0---0|
D-----------------------|--------------------|-----4---4-----------4---4------|
A-----------------------|--------------------|-------2---------------2--------|
E-----------------------|--------------------|-0---------------0--------------|

                             [Фигура 3]
E----------------------------|------------|-------------------------|----------
B----0-----0-------0---------|------------|-------------------------|----------
G------0-----0---0-4-----7-6-|-5-5--7-6-2-|-5-5---------------------|----------
D-----(0)---(0)----0-----5-4-|-3-3--5-4-0-|-3-3-0-2-4-5-4-5-7-5-4-0-|----------
A--3-----3-----3---2---------|------------|-------------------------|----------
E----------------------------|------------|-------------------------|----------

                                                               [Конец фигуры 3]
E------------------|------------|-------------------------|----------------|---
B------------------|------------|-------------------------|----------------|---
G------------------|------7-6-2-|-5-5---------------------|----------------|---
D--5-5--7----------|-2-2--5-4-0-|-3-3-0-2-4-5-4-5-7-5-4-0-|-5-5--7-5-4-0-2-|---
A--3-3--5--3-2-----|-2-2--------|-------------------------|-3-3--5---------|---
E--------------3-2-|-0-0--------|-------------------------|----------------|---

                [Фигура 4]
                Red,white,black in city...
E--------------|---------------------------------|----------------------------|
B-Повтор фиг.3-|---------------------------------|----------------------------|
G--------------|---------------------------------|------------------(7)(6)(2)-|
D--------------|-2-------2-------2-------2-------|-2-------2---------5--4--0--|
A--------------|-2-------2-------2-------2-------|-2-------2-------2-5--4--0--|
E--------------|-0---0-0-0---0-0-0---0-0-0---0-0-|-0---0-0-0---0-0-0----------|

                                                       [Конец фиг.4]
E----------------------------------|-----------------------------|-------------
B----------------------------------|-----------------------------|-Повтор фиг.4
G----------------------------------|-----------------------------|'Stab each---
D--2-------2-------2-------2-------|-2-------2-0-2-5-4-2-7-5-4-2-|-other...'---
A--2-------2-------2-------2-------|-2-------2-------------------|-------------
E--0---0-0-0---0-0-0---0-0-0---0-0-|-0---0-0-0-------------------|-------------


                             Hear our cry from down be-low
E--------|-----------------|--------------------------|-------------------|----
B-Повтор-|-Повтор----------|--------------------------|-------------------|----
G-фиг.3--|-фиг.4-два раза--|--------------------------|-------------------|----
D--------|-'To ensure..'---|-2---------5--------------|-7-----4-5-7-5-4-0-|----
A--------|-'To disturb ..'-|-2---------3---2---3----7-|-5-----------------|----
E--------|-----------------|-0------------------------|-------------------|----

                      [Фигура 5]                   (Your cities...)
  Let our rushy spirits go                         You've trapped us in
E---------------------|--------------------------|----------------------------|
B---------------------|--------------------------|----------------------------|
G---------------------|---------------------4--2-|----------------------------|
D--5------7-----------|---------2-----------2--0-|-5----------------4---------|
A--3------5-----------|---------2----------------|-3----------------2-3-2-----|
E---------------------|-0-0-0-0-0---0-0-0-0------|------------------------3-2-|

                                                         [Конец фиг.5]
  your world of sin           let the plague begin       dam-nation
E-------------------------|---------------------------|-------------|----------
B-------------------------|---------------------------|-------------|-Повтор---
G-------------------------|---------------------------|-------------|-фиг.5----
D---------------5---------|-7-----------4---5-7-5-4-0-|-5-----7-----|-'Your----
A-2-------------3-2-3-2-0-|-5-------------------------|-3-----5-----|-cities..'
E-0-----------------------|---------------------------|-------------|----------


E-------------------------|----------------|-----------------------------------
B-------------------------|----------------|-----------------------------------
G---------------------4-2-|----------------|-Соло------------------------------
D---------2-----------2-0-|-5----4---------|-----------------------------------
A---------2---------------|-3----2-3-2-----|-----------------------------------
E-0-0-0-0-0---0-0-0-0-----|------------3-2-|-----------------------------------

[                       Повтор 4 раза, другая гитара играет соло]
E-------------------|--------------|---------------|---------------|-----------
B-------------------|--------------|---------------|---------------|-----------
G--4-----4--4---7---|-6-----2--2---|-4----4--4---7-|-9---2--2--7-6-|-----------
D--2-----2--2---5---|-4-----0--0---|-2----2--2---5-|-7---0--0--5-4-|-----------
A-------------------|--------------|---------------|---------------|-----------
E-------------------|--------------|---------------|---------------|-----------

[                                  Повтор 4 раза, другая гитара играет соло]
E---------------------|---------------|----------------------|----------------|
B---------------------|---------------|----------------------|----------------|
G-4---------4---------|-4---------7--6|----------------------|-----------7--6-|
D-2-2-2-2-2-2--2-2-2-2|-2-2-2-2-2-5--4|-7----------7---------|-7---------5--4-|
A---------------------|---------------|-5--5-5-5-5-5--5-5-5-5|-5-5-5-5-5------|
E---------------------|---------------|----------------------|----------------|


E---Повтор------------------|------------|-----||
B---фиг.3-------------------|------------|-----||
G---два раза----------------|------------|-4---||
D---Второй раз--------------|--5----7----|-2---||
A---вместо последнего такта |--3----5----|-2---||
E---играть это--------------|------------|-0---||

В виде .txt-файла

Защитный код

 
Быстрый вход