Табулатура «Kyrie Eleison» для гитары

Автор табулатуры — Тим Мессик (Tim Messick, messick[собака]cs.ucla.edu).

Примечание автора: «Я нигде не смог найти табов Fates Warning, особенно старых вещей, и решил прислать свою транскрипцию Kyrie Eleison с их второго альбома.
Обозначения:
~~ — Вибрато;
^ — Бенд (высота подтяжки отмечена сверху; 1/2 = полутон, 1 = целый тон);
v — Конец бенда (без повторного взятия ноты);
\, / — Слайд-гитара;
xx — пальцы левой руки слегка прижимают струны к ладам, чтобы при взятии ноты получился щёлкающий звук;
3(4) — Одна гитара берёт 3 лад, а другая — 4 (хотя ритм-гитара в этой песне в основном дублирует);
p11 — Пул-офф на 11 ладу;
h13 — Хаммер-он на 13 ладу;
a.h. — Искусственный флажолет;
p.m. — Глушение ладонью правой руки».

     Ритм 1  (ринг-аут с дисторшном)
E---------------------------------------------------------------------------
B---------------------------------------------------------------------------
G----4---------4--4---------7--6--------------------------------------------
D----4---------4--4---------7--6---3---------3--3--------6-------5----------
A----2---------2--2---------5--4---3---------3--3--------6-------5----------
E----------------------------------1---------1--1--------4-------3----------

                                                             Конец ритма 1
E---------------------------------------------------------------------------
B---------------------------------------------------------------------------
G----------------------------------------------10--9---7--------------------
D-----------6----5---6----9--------------------10--9---7--------------------
A----5--5---6----5---6----9---------------9-9--8---7---5--------------------
E----3--3---4----3---4----7---------------7-7-------------------------------
   p.m..--|  стаккато---|   ринг-аут            стаккато--|


Повтор ритма 1


В ритме 1:  (вторая лидирует, но я размещаю их на одном табе)
              1/2
E---------------------------------------------------------------------------
B-----------------------------------------13------12-h13-12~~----15-13------
G---11~~~----12^v-p11--12--/14-/14~~~-----14--14--12-h13-12~~-----------14--
D------------14^v-p12--14--/16--15~~~---------15-----------------15-14--12--
A---14~~~-------------------------------------------------------------------
E---------------------------------------------------------------------------

                                                                   полностью
E---------------------------------------------------------------15^----v----
B-----------------------------10---------------------------13---17^----v----
G--11-h12-11~~~-----9-11-12~--------7--9-11~~~---------14--14---------------
D-------------------------------------------------/16--16-------------------
A--14-h15-14~~~----10-12-14~--15---10-12-14~~~----/14-----------------------
E---------------------------------------------------------------------------
                              Пересечение здесь---^
                                           полностью               полностью
E--15~~~---13\12--12------------------------------------14-15-p17---17^ ~~~-
B--17~~~----15----13---15--13--12--13--15--/17~~~----17-14-15-p17---17^ ~~~-
G----------------------16--14--12--14--16---14^ ~~~--16---------------------
D-------------------------------------------------------------------9-------
A-------------------------------------------------------------------9-------
E-------------------------------------------------------------------7-------

[Игра ударных]

Ритм 2:
E---------------------------------------------------------------------------
B---------------------------------------------------------------------------
G--------------------------------------------------------------10\-7--9--7--
D-------------7------------------------------------------------10\-7--9--7--
A-------------5-------------------------------------------------------------
E---5-h6-h7--------7-7-7-7-7-7-7-7-7-7-7-7-7-7-7-7-7-7-7-7-7-7--------------
                   p.m.---------------------------------------|

E---------------------------------------------------------------------------
B---------------------------------------------------------------------------
G---------------------------------------------------------------------------
D-----------------------------------------------------12-11-9--7------------
A-----------------------------------------------------12-11-9--7------------
E-7-7-7-7-7-7-7-7-7-7-7-7-7-7-7-7-7-7-7-7-7-7-7-7-7-7-10-9--7--5---5-h6-h7--
  p.m.-----------------------------------------------|

E---------------------------------------------------------------------------
B---------------------------------------------------------------------------
G------------------------------------------------10\-7--9--7----------------
D--7---------------------------------------------10\-7--9--7----------------
A--5------------------------------------------------------------------------
E----7-7-7-7-7-7-7-7-7-7-7-7-7-7-7-7-7-7-7-7-7-7--------------7-7-7-7-7-7-7-
     p.m.---------------------------------------|             p.m.---------

                                                             Конец ритма 2
E---------------------------------------------------------------------------
B---------------------------------------------------------------------------
G-----------------------------------------------------------/7---6----------
D-----------------12---11---9-----7--3--7-------------------/7---6----------
A-----------------12---11---9-----7--3--7--5-----4-----2----/5---4----0-----
E-7-7-7-7-7-7-7---10---9----7-----5--3--5--3-----2-----0--------------------
 --------------|

Ритм 3:  (здесь начинается пение)
E---------------------------------------------------------------------------
B---------------------------------------------------------------------------
G--4------------------------------------------------------------------------
D--4------------------------------------------------------------4/----7-----
A--2--2-2-2-2-2-2-2-2-2-2-2-2-2-2-2-2-2-2-2-2-2-2-2-2-2-2-2-2-2-2/----5-----
E---------------------------------------------------------------------------
      p.m.------------------------------------------------------|

E---------------------------------------------------------------------------
B---------------------------------------------------------------------------
G---------------------------------------------------------------------------
D---------------------------7--6--------------------------------------------
A--5-5-5-5-5-5-5-5-5-5-5-5--5--4-4-4-4-4-4-4-4-4-4-4-4-4-----5--------------
E---------------------------------------------------------4--3--3-3-3-3-3-3-
  p.m.--------------------|      p.m.-------------------|       p.m.----


E---------------------------------------------------------------------------
B---------------------------------------------------------------------------
G---------------------------------------------------------------------------
D---------------------------------------------------------------------------
A----------------------------------5--2--5--4-----------------------5-2-5-4-
E-3-3-3-3-3-3-3-3-3-3-3-3-3-3-3-3--3--0--3--2--2-2-2-2-2-2-2-2-2-2--3-0-3-2-
  -------------------------------|             p.m.---------------|

                          |---окончание 1--|                   Конец ритма 3
E-------------------------------------------+п------------------------------
B-------------------------------------------+о------------------------------
G--------------------------------7---6------+в-гитара замолкает-------------
D--------------------------------7---6------+т---"окончание 1"--------------
A--------------------------------5---4---0--+о------------------------------
E-2-2-2-2-2-2-2-2-2-2-2-2-2-2---------------+р------------------------------
  p.m.--------------------------|


Повтор ритма 2
Повтор ритма 2

Ритм 4:
E---------------------------------------------------------------------------
B---------------------------------------------------------------------------
G---------------------------------------------------------------------------
D-------------------------------------------------------------5-------------
A--7--5-------4---------------5---------------4---------------3(3 a.h.~~~)--
E--5--3---0---2--0-0-0-0-0-0--3--0-0-0-0-0-0--2--0-0-0-0-0-0----------------
                 p.m.-------|    p.m.-------|    p.m.-------|

E---------------------------------------------------------------------------
B---------------------------------------------------------------------------
G---------------------------------------------------------------------------
D-------------------------------------------------------------7-------------
A-------------4---------------5---------------4---------------5(5 a.h.~~~)--
E-------------2--0-0-0-0-0-0--3--0-0-0-0-0-0--2--0-0-0-0-0-0----------------
                 p.m.-------|    p.m.-------|    p.m.-------|

E---------------------------------------------------------------------------
B---------------------------------------------------------------------------
G---------------------------------------------------------------------------
D-------------------------------------------------------------5-------------
A-------------4---------------5---------------4---------------3(3 a.h.~~~)--
E-------------2--0-0-0-0-0-0--3--0-0-0-0-0-0--2--0-0-0-0-0-0----------------
                 p.m.-------|    p.m.-------|    p.m.-------|
                                                           Конец ритма 4
E---------------------------------------------------------------------------
B---------------------------------------------------------------------------
G---------------------------------------------------------------------------
D-------------------------------------------------7--6--4-----4--7----------
A-4---------------5---------------4---------------5--4--2--0--2--5----------
E-2--0-0-0-0-0-0--3--0-0-0-0-0-0--2--0-0-0-0-0-0----------------------------
     p.m.-------|    p.m.-------|    p.m.-------|

Ритм 5:
E---------------------------------------------------------------------------
B---------------------------------------------------------------------------
G--(4)---------------7------6-----------------------------------------------
D---4--------3-------7------6-------------------5---4---------------5--4----
A---2--------3-------5------4--------0-h2--0----3---2-----0-h2--0---3--2----
E---2--------1-------5------4-----------------------------------------------


E---------------------------------------------------------------------------
B---------------------------------------------------------------------------
G--(4)----------------------------------------------------------------------
D---4--------3------7-------6-------------------5---4---------------5--4----
A---2--------3------7-------6--------0-h2--0----3---2-----0-h2--0---3--2----
E---2--------1------5-------4-----------------------------------------------


Повтор ритма 5

              |------ Ритм 6 -------|
E-------------+---------------------+---------------------------------------
B-------------+---------------------+---------------------------------------
G-------------+---------------------+---------------------------------------
D--4---7------+--9-----5-----2----4-+---------------------------------------
A--4---7------+--9-----5-----2----4-+---------------------------------------
E--2---5------+--7-----3-----0----2-+---------------------------------------
                 Здесь начинается соло....

Повтор ритма 6

 Ритм 7:                                                   Конец ритма 7
E---------------------------------------------------------------------------
B---------------------------------------------------------------------------
G---------------------------------------------------------------------------
D------------7--9-----------9--7-----------7--9-----------------------------
A------------5--7-----------7--5-----------5--7-----------12--xx--11--------
E---7-7-7-7--------7-7-7-7--------7-7-7-7-------7-7-7-7---10--xx--9---------
    p.m.---|       p.m.---|       p.m.---|      p.m.---|

Повтор ритма 7 три раза

E---------------------------------------------------------------------------
B---------------------------------------------------------------------------
G---------------------------------------------------------------------------
D----9---7--5--7-------------------/7---6-----------------------------------
A----9---7--5--7--5-----4----2-----/5---4----0------------------------------
E----7---5--3--5--3-----2----0----------------------------------------------


Повтор ритма 3.
Повтор ритма 4.
Повтор ритма 5.

E---------------------------------------------|-----------------------------
B---------------------------------------------|-----------------------------
G----------------------------------4----------|----Конец!-------------------
D-----7---6--------6----5----------4----------|-----------------------------
A-----5---4--------4----3----5-----2----------|-----------------------------
E--------------5-------------3-----2----------|-----------------------------

В виде .txt-файла

Защитный код

 
Быстрый вход