Табулатура «Fata Morgana» для гитары

Автор табулатуры — Брэд Ларсен (Brad Larsen).

Gtr I — Гитара I (E A D G B E)
Gtr II — Гитара II (E A D G B E)
Gtr III — Гитара III (E A D G B E)

  Q=145
4/4
  Gtr I
  W                E  S S E S S S E S  E S S    E  S S E  S  S S E S E S S
|-------------||-----------------------------|-----------------------------|
|-------------||o----------------------------|-----------------------------|
|-------------||-----------------------------|-----------------------------|
|-------------||---6------6-------6----6-----|--6------6---------6---6-----|
|-------------||o--4--4-4-4-4-4-4-4-4--4-4-4-|--4--4-4-4--4--4-4-4-4-4-4-4-|
|-------------||-----------------------------|-----------------------------|
|
| Gtr II
|                                               ~~~~~~~~~~~~~~~~~~~~~~~
| H..       E      H.                  E E      Q.        Q.         Q
|-------------||-----------------------------|-----------------------------|
|-------------||o----------------------------|-----------------------------|
|-------------||-----------------------------|-13--------11----------9-----|
|-----------9-||--11------------------11-9---|-----------------------------|
|-------------||o----------------------------|-----------------------------|
|-------------||-----------------------------|-----------------------------|
|
| Gtr III
|                                               ~~~~~~~~~~~~~~~~~~~~~~~
| H..       E      H.                  E E      Q.        Q.         Q
|-------------||-----------------------------|-----------------------------|
|-------------||o----------------------------|-12--------10----------9-----|
|-----------8-||---9-------------------9-8---|-----------------------------|
|-------------||-----------------------------|-----------------------------|
|-------------||o----------------------------|-----------------------------|
|-------------||-----------------------------|-----------------------------|


   E  S S E S  S S E S  E S S    Q.    Q.   Q      4x
|-----------------------------|--------------------||
|-----------------------------|-------------------o||
|-----------------------------|--------------------||
|--4------4--------4----4-----|--9-----9----4------||
|--2--2-2-2-2--2-2-2-2--2-2-2-|--7-----6----2-----o||
|-----------------------------|--------------------||
|
|  Q.       Q.          Q        Q.    Q.   E E    4x
|-----------------------------|--------------------||
|-----------------------------|--9----------------o||
|--8--------9----------11-----|-------11----9------||
|-----------------------------|---------------9----||
|-----------------------------|-------------------o||
|-----------------------------|--------------------||
|
|  Q.       Q.          Q        Q.    Q.   E E    4x
|-----------------------------|--------------------||
|-----------9----------10-----|-12----10----9-----o||
|-11--------------------------|---------------8----||
|-----------------------------|--------------------||
|-----------------------------|-------------------o||
|-----------------------------|--------------------||


   4/4
    Gtrs I, II, III
    |--3--| |-3-| |3|
    S S E E E E E Q H    +W
||---------------------|------------|
||o--------------------|------------|
||---------------------|------------|
||----------------6-2--|-(2)--------|
||o-4-4-4-4-4-4-4-4-0--|-(0)--------|
||---------------------|------------|


  |--3--| |-3-| |-3-|
  S S E E E E E Q Q Q   W            H    H
|---------------------|-----------||-----------|
|---------------------|----------o||-----------|
|---------------------|-----------||-----------|
|---------------6---9-|-----------||-2----4----|
|-4-4-4-4-4-4-4-4-7-7-|-9--------o||-0----2----|
|-----------------5---|-7---------||-----------|


    Gtr I
    W                        +W
||-------------------------|-----------------------------|
||o------------------------|-----------------------------|
||-------------------------|-----------------------------|
||--6----------------------|-(6)-------------------------|
||o-4----------------------|-(4)-------------------------|
||-------------------------|-----------------------------|
|
|     Gtr II
|   |3-| |-3-| |-3-| |-3-|    |-3--| |-3-| |-3--| |-3--|
|   Q  E E E E E E E E E E    E  E E E E E E E  E E  E E
||-------------------------|-----------------------------|
||o------------------------|-----------------------------|
||-------------------------|-----------------------------|
||--6----------------------|----------------------7------|
||o-4--4-4-4-4-4-4-4-4-4-4-|--4--4-4-4-4-4-7-9-11---11-9-|
||-------------------------|-----------------------------|


                                          |-3-| |-3-|
  +W                        +H            E E E E E E
|-------------------------|---------------------------|
|-------------------------|---------------------------|
|-------------------------|---------------------------|
|-(6)---------------------|-(6)-----------------------|
|-(4)---------------------|-(4)-----------------------|
|-------------------------|---------------0-4-0-7-5-0-|
|
|  |3-| |-3-| |-3-| |-3-|    |-3--| |-3-| |-3-| |-3-|
|  Q  E E E E E E E E E E    E  E E E E E E E E E E E
|-------------------------|---------------------------|
|-------------------------|---------------------------|
|-------------------------|---------------------------|
|--6----------------------|---------------------------|
|--4--4-4-4-4-4-4-4-4-4-4-|--4--4-4-4-4-4-------------|
|-------------------------|---------------0-4-0-7-5-0-|


  |-3-| |-3-|   |-3-| |-3-|
  Q Q Q Q Q Q   Q Q Q Q Q Q
|-------------|-----------------||
|-------------|----------------o||
|-------------|-----------------||
|-------------|-9-9-9-----------||
|-4-4-4-7-7-7-|-7-7-7-9-9-9----o||
|-2-2-2-5-5-5-|-------7-7-7-----||
|
| |-3-| |-3-|   |-3-| |-3-|
| Q Q Q Q Q Q   Q Q Q Q Q Q
|-------------|-----------------||
|-------------|----------------o||
|-------------|-----------------||
|-------------|-9-9-9-----------||
|-4-4-4-7-7-7-|-7-7-7-9-9-9----o||
|-2-2-2-5-5-5-|-------7-7-7-----||


  Q   Q        Q        Q
|----------------------------|
|----------------------------|
|----------------------------|
|--------------9-------------|
|-7---6--------7--------9----|
|-5---4-----------------7----|


                     |-----6-----|
  H.      Q     H    E E  E E  E E   W
|-------------|--------------------|--------|
|-------------|--------------------|--------|
|-------------|--------------------|--------|
|-6-------4---|-6-----------7------|-6------|
|-4-------5---|-4----7-9-11---11-9-|-4------|
|-------------|--------------------|--------|


     |-3-|                 |3| |-3-| |3| |-3-|
  Q  E E E Q Q    W        Q E E E E Q E E E E
|---------------|--------|---------------------|
|---------------|--------|---------------------|
|---------------|--------|-7-7-7-6-4-------4-4-|
|-4-------------|-4------|-----------7-7-7-----|
|-5--4-5-4------|-2------|---------------------|
|----------7-5--|--------|---------------------|


                    |-----6-----|
  H.      Q    H    E E  E E  E E   W
|------------|--------------------|----------|
|------------|--------------------|----------|
|------------|--------------------|----------|
|-6-------4--|-6-----------7------|-6--------|
|-4-------5--|-4----7-9-11---11-9-|-4--------|
|------------|--------------------|----------|


     |-3-|                    |-3-| |-3-|
  Q  E E E Q  Q    W          Q Q Q Q Q Q
|----------------|----------|----------------|
|----------------|----------|----------------|
|----------------|----------|-7-7-7-6-4------|
|-4--------------|-4--------|-----------7----|
|-5--4-5-4-------|-2--------|----------------|
|----------7--5--|----------|----------------|


                     |-----6-----|
  H.      Q     H    E E  E E  E E   W
|-------------|--------------------|--------|
|-------------|--------------------|--------|
|-------------|--------------------|--------|
|-6-------4---|-6-----------7------|-6------|
|-4-------5---|-4----7-9-11---11-9-|-4------|
|-------------|--------------------|--------|


     |-3-|                 |3| |-3-| |3| |-3-|
  Q  E E E Q Q    W        Q E E E E Q E E E E
|---------------|--------|---------------------|
|---------------|--------|---------------------|
|---------------|--------|-7-7-7-6-4-------4-4-|
|-4-------------|-4------|-----------7-7-7-----|
|-5--4-5-4------|-2------|---------------------|
|----------7-5--|--------|---------------------|


       |-3-|    |-3-|      |-3-|    |-3-|   |-3-| |-3-|   |-3-| |-3-|
    Q  E E E Q  E E E   Q  E E E Q  E E E   Q Q Q Q Q Q   Q Q Q Q Q Q
||--------------------|-------------------|-------------|-------------||
||o-------------------|-------------------|-------------|------------o||
||--------------------|-------------------|-------------|-------------||
||--6--------6--------|-6--------6--------|-------------|-9-9-9-------||
||o-4--0-2-2-4--0-2-2-|-4--0-2-2-4--0-2-2-|-4-4-4-7-7-7-|-7-7-7-9-9-9o||
||--------------------|-------------------|-2-2-2-5-5-5-|-------7-7-7-||


  Q  Q  Q  Q
|---------------|
|---------------|
|---------------|
|----------4----|
|-7--6--2--2----|
|-5--4--0-------|


                     |-----6-----|
  H.      Q     H    E E  E E  E E   W
|-------------|--------------------|--------|
|-------------|--------------------|--------|
|-------------|--------------------|--------|
|-6-------4---|-6-----------7------|-6------|
|-4-------5---|-4----7-9-11---11-9-|-4------|
|-------------|--------------------|--------|


     |-3-|                 |3| |-3-| |3| |-3-|
  Q  E E E Q Q    W        Q E E E E Q E E E E
|---------------|--------|---------------------|
|---------------|--------|---------------------|
|---------------|--------|-7-7-7-6-4-------4-4-|
|-4-------------|-4------|-----------7-7-7-----|
|-5--4-5-4------|-2------|---------------------|
|----------7-5--|--------|---------------------|


                    |-----6-----|
  H.      Q    H    E E  E E  E E   W
|------------|--------------------|----------|
|------------|--------------------|----------|
|------------|--------------------|----------|
|-6-------4--|-6-----------7------|-6--------|
|-4-------5--|-4----7-9-11---11-9-|-4--------|
|------------|--------------------|----------|


     |-3-|                    |-3-| |-3-|
  Q  E E E Q  Q    W          Q Q Q Q Q Q
|----------------|----------|----------------|
|----------------|----------|----------------|
|----------------|----------|-7-7-7-6-4------|
|-4--------------|-4--------|-----------7----|
|-5--4-5-4-------|-2--------|----------------|
|----------7--5--|----------|----------------|


                     |-----6-----|
  H.      Q     H    E E  E E  E E   W
|-------------|--------------------|--------|
|-------------|--------------------|--------|
|-------------|--------------------|--------|
|-6-------4---|-6-----------7------|-6------|
|-4-------5---|-4----7-9-11---11-9-|-4------|
|-------------|--------------------|--------|


     |-3-|                 |3| |-3-| |3| |-3-|
  Q  E E E Q Q    W        Q E E E E Q E E E E
|---------------|--------|---------------------|
|---------------|--------|---------------------|
|---------------|--------|-7-7-7-6-4-------4-4-|
|-4-------------|-4------|-----------7-7-7-----|
|-5--4-5-4------|-2------|---------------------|
|----------7-5--|--------|---------------------|


       |-3-|    |-3-|      |-3-|    |-3-|   |-3-| |-3-|   |-3-| |-3-|
    Q  E E E Q  E E E   Q  E E E Q  E E E   Q Q Q Q Q Q   Q Q Q Q Q Q
||--------------------|-------------------|-------------|-------------||
||o-------------------|-------------------|-------------|------------o||
||--------------------|-------------------|-------------|-------------||
||--6--------6--------|-6--------6--------|-------------|-9-9-9-------||
||o-4--0-2-2-4--0-2-2-|-4--0-2-2-4--0-2-2-|-4-4-4-7-7-7-|-7-7-7-9-9-9o||
||--------------------|-------------------|-2-2-2-5-5-5-|-------7-7-7-||


  Q  Q  Q  Q
|---------------|
|---------------|
|---------------|
|----------4----|
|-7--6--2--2----|
|-5--4--0-------|


  Q=100
5/4                        4/4
  S S S S E E e e Q  S S E   S S S S E E E S S E E
|--------------------------|-----------------------|
|--------------------------|-----------------------|
|--------------------------|-----------------------|
|---------6-6---4-4------4-|-------------------9-7-|
|-4-4-4-4-4-4---2-2--2-2-2-|---------4-7-7-----7-5-|
|-------------2------------|-2-2-2-2-2-5-5-2-0-----|


5/4                        4/4
  S S S S E E e e Q  S S E   S S S S E E E S S E E
|--------------------------|------------------------|
|--------------------------|------------------------|
|--------------------------|------------------------|
|---------6-6---4-4------4-|-------------------9-7--|
|-4-4-4-4-4-4---2-2--2-2-2-|---------4-7-7-----7-5--|
|-------------2------------|-2-2-2-2-2-5-5-2-0------|


5/4
  S S S S E E e e Q  S S E   S S S S E E E S S Q  Q
|--------------------------|-------------------------|
|--------------------------|-------------------------|
|--------------------------|-------------------------|
|---------6-6---4-4------4-|-------------------9--7--|
|-4-4-4-4-4-4---2-2--2-2-2-|---------4-7-7-----7--5--|
|-------------2------------|-2-2-2-2-2-5-5-2-0-------|


                            4/4
  S S S S E E e e Q  S S E   S S S S E E E S S E E
|--------------------------|--------------------------|
|--------------------------|--------------------------|
|--------------------------|--------------------------|
|---------6-6---4-4------4-|-------------------9-7----|
|-4-4-4-4-4-4---2-2--2-2-2-|---------4-7-7-----7-5----|
|-------------2------------|-2-2-2-2-2-5-5-2-0--------|


                                                        2/4
  Q  E E S S S S E S S   S S S S E S S S  S  S S E S S   S  S  S S E E
|----------------------|-------------------------------|----------------|
|----------------------|-------------------------------|----------------|
|----------------------|-------------------------------|----------------|
|-6--6-6---------4-----|---------2---------------------|-------------9--|
|-4--4-4-2-2-2-2-2-2-2-|-0-0-0-0-0-0-0-4-(4)-----4-----|-4-(4)-----4-7--|
|----------------------|---------------0--2--2-2-2-2-2-|-0--2--2-2-2----|


                                       Q=160
                        2/4             4/4
  Q  E E S S S S E S S   S S S S E S S   W
|----------------------|---------------|------|
|----------------------|---------------|------|
|----------------------|---------------|------|
|-6--6-6---------4-----|---------2-----|-4----|
|-4--4-4-2-2-2-2-2-2-2-|-0-0-0-0-0-0-0-|-2----|
|----------------------|---------------|------|


   |--3---|  |--3--|  |--3--|  |-3--|    |-3-| |-3-| |-3-|
   E +E   E  E  E  E  E  E  E  E  E E    E E E E E E Q Q Q
|-------------------------------------|--------------------|
|-------------------------------------|--------------------|
|-------------------------------------|----------------4---|
|--6-(6)------------------------------|--------------4-2-4-|
|--4-(4)--4--4--4--4--4--4--4--4--4-4-|--4-4-4-4-4-4-2---2-|
|-------------------------------------|--------------------|
|
|  |--3---|  |--3--|  |--3--|  |-3--|    |-3-| |-3-| |-3-|
|  E  E   E  E  E  E  E  E  E  E  E E    E E E E E E Q Q Q
|--9--7------7------------------------|--------------------|
|--------10----10--9-10--9--7--9--7-5-|--7-5-4-5-4---------|
|-------------------------------------|------------6-------|
|-------------------------------------|--------------4-6-4-|
|-------------------------------------|--------------------|
|-------------------------------------|--------------------|
|
| Gtr III
|  |-------6-------|  |------6------|    |-3-| |-3-| |-3-|
|  E  E   E  E  E  E  E  E  E  E  E E    E E E E E E Q Q Q
|-12-10---9-10--9-----9---------------|--------------------|
|-----------------12----12-10-12-10-9-|-10-9-7-9-7---------|
|-------------------------------------|------------9-4-6-4-|
|-------------------------------------|--------------------|
|-------------------------------------|--------------------|
|-------------------------------------|--------------------|


  |--3--| |-3-| |-3-| |-3-|   |-3-| |-3-| |-3-|
  E +E  E E E E E E E E E E   E E E E E E Q Q Q
|---------------------------|----------------------|
|---------------------------|----------------------|
|---------------------------|---------------4------|
|-6-(6)---------------------|-------------4-2-4----|
|-4-(4)-4-4-4-4-4-4-4-4-4-4-|-4-4-4-4-4-4-2---2----|
|---------------------------|----------------------|
|
|                             ~
| H             H             W
|---------------------------|----------------------|
|---------------------------|----------------------|
|---------------4-----------|----------------------|
|---------------------------|-6--------------------|
|-7-------------------------|----------------------|
|---------------------------|----------------------|
|
|                             ~
| H         H                 W
|---------------------------|----------------------|
|-----------5---------------|----------------------|
|-4-------------------------|-6--------------------|
|---------------------------|----------------------|
|---------------------------|----------------------|
|---------------------------|----------------------|


  |--3--| |-3-| |-3-| |-3-|   |--3--| |-3-| |-3-| |-3-|
  E +E  E E E E E E E E E E   E +E  E E E E E E E E E E
|---------------------------|---------------------------|
|---------------------------|---------------------------|
|---------------------------|---------------------------|
|-2-(2)---------------------|-4-(4)---------------------|
|-0-(0)-0-0-0-0-0-0-0-0-0-0-|-2-(2)-2-2-2-2-2-2-2-2-2-2-|
|---------------------------|---------------------------|
|
| |--3--| |-3-| |---3---|     |-----6-----| |---3---|
| E  E  E E E E Q   Q   Q     E  E  E E E E Q   Q   Q
|---------------------------|---------------------------|
|-7--9--9-9-9-9-7-----------|---------------------------|
|-------------------9---8---|-8--9--9-9-9-9-8---6-------|
|---------------------------|-----------------------9---|
|---------------------------|---------------------------|
|---------------------------|---------------------------|
|
| |--3--| |-3-| |---3---|     |-----6-----| |---3---|
| E  E  E E E E Q   Q   Q     E  E  E E E E Q   Q   Q
|---------------------------|---------------------------|
|---------------------------|---------------------------|
|-4--6--6-6-6-6-4-----------|---------------------------|
|-------------------7---6---|-6--7--7-7-7-7-6---4-------|
|---------------------------|-----------------------7---|
|---------------------------|---------------------------|


   |--3---|  |--3--|  |--3--|  |--3--|    |----3-----|     |--3--|  |-3-|
   E +E   E  E  E  E  E  E  E  E  E  E    E    E     E     E  E  E  Q Q Q
|--------------------------------------|-------------------------------------|
|--------------------------------------|-------------------------------------|
|--------------------------------------|------------------------------4------|
|--6-(6)-------------------------------|----------------------------4-2-4----|
|--4-(4)--4--4--4--4--4--4--4--4--4--4-|--4----4-----4-----4--4--4--2---2----|
|--------------------------------------|-------------------------------------|
|
|                                                                   ~~
|  |-------6-------|  |------6-------|                     |--3--|
|  E  E   E  E  E  E  E  E  E  E  E  E    S  S    S     S  E  E  E  H
|----16--16----16-16----16-16----16-16-|-14h16p==14----12--------------------|
|-17--------17-------17-------17-------|------------------16-14-12-14--------|
|--------------------------------------|-------------------------------------|
|--------------------------------------|-------------------------------------|
|--------------------------------------|-------------------------------------|
|--------------------------------------|-------------------------------------|
|
|                                                                   ~~
|  |--3---|  |--3--|  |--3--|  |--3--|                  |--3--|
|  E  E   E  E  E  E  E  E  E  E  E  E    S  S    S  S  E  E  E     H
|-16-21--21-16-21-21-16-21-21-16-21-21-|-17h19p==17-16-----------------------|
|--------------------------------------|---------------19-17-16----17--------|
|--------------------------------------|-------------------------------------|
|--------------------------------------|-------------------------------------|
|--------------------------------------|-------------------------------------|
|--------------------------------------|-------------------------------------|


  |--3--| |-3-| |-3-| |-3-|   |-3-| |-3-| |-3-|
  E +E  E E E E E E E E E E   E E E E E E Q Q Q
|---------------------------|--------------------|
|---------------------------|--------------------|
|---------------------------|---------------4----|
|-6-(6)---------------------|-------------4-2-4--|
|-4-(4)-4-4-4-4-4-4-4-4-4-4-|-4-4-4-4-4-4-2---2--|
|---------------------------|--------------------|
|
|                                         ~
| |-----6-----| |----6----|   |----6----|
| E  E  E E E E E E E E E E   E E E E E E H
|-7--9--9-9-9-9-9-9-9-9-9-9-|-9-9-9-9-9-9-9------|
|---------------------------|--------------------|
|---------------------------|--------------------|
|---------------------------|--------------------|
|---------------------------|--------------------|
|---------------------------|--------------------|
|
|                                         ~
| |-----6-----| |----6----|   |----6----|
| E  E  E E E E E E E E E E   E E E E E E H
|---------------------------|--------------------|
|-7--9--9-9-9-9-9-9-9-9-9-9-|-9-9-9-9-9-9-9------|
|---------------------------|--------------------|
|---------------------------|--------------------|
|---------------------------|--------------------|
|---------------------------|--------------------|


   |----3----| |-3-|  |-3--| |-3--|    |----3----| |-3-| |-3--| |-3-|
   E    +E   E E E E  E E  E E  E E    E    +E   E E E E E E  E E E E
|-----------------------------------|----------------------------------|
|-----------------------------------|----------------------------------|
|-----------------------------------|----------------------------------|
|--2----(2)-------------------------|--4----(4)------------------------|
|--0----(0)--0-0-0-0--0-0--0-0--0-0-|--2----(2)--2-2-2-2-2-2--2-2-2-2--|
|-----------------------------------|----------------------------------|
|
|  |-------------6--------------|      |------------6-------------|
|  Q         Q   Q    Q    Q    Q      Q         Q   Q   Q    Q   Q
|-----------------------------------|----------------------------------|
|-----------------------------------|----------------------------------|
|-11b13-----11---9----8---------8---|--8b9-------8---6-----------------|
|-------------------------11--------|--------------------9----7---9----|
|-----------------------------------|----------------------------------|
|-----------------------------------|----------------------------------|
|
|  |-------------6--------------|      |------------6-------------|
|  Q         Q   Q    Q    Q    Q      Q         Q   Q   Q    Q   Q
|-----------------------------------|----------------------------------|
|-10b12-----10---9------------------|----------------------------------|
|--------------------11----9---11---|-11b13-----11---9---8--------8----|
|-----------------------------------|------------------------11--------|
|-----------------------------------|----------------------------------|
|-----------------------------------|----------------------------------|


   |--3--| |-3-| |-3-| |-3-|     |-3--| |-3-| |-3-| |-3-|
   E +E  E E E E E E E E E E     E  E E E E E E E E E E E
|----------------------------|-------------------------------|
|----------------------------|-------------------------------|
|----------------------------|-------------------------------|
|--6-(6)---------------------|-------------------------------|
|--4-(4)-4-4-4-4-4-4-4-4-4-4-|---4--4-4-4-4-4-4-4-4-4-4-4----|
|----------------------------|-------------------------------|
|
|  ~~~~~~~~~~~~~~~~~~~~~~~~~~~~~~~~~
|  W                            +W
|----------------------------|-------------------------------|
|----------------------------|-------------------------------|
|----------------------------|-------------------------------|
|-11-------------------------|-(11)--------------------------|
|----------------------------|-------------------------------|
|----------------------------|-------------------------------|
|
|  ~~~~~~~~~~~~~~~~~~~~~~~~~~~~~~~~~
|  W                            +W
|----------------------------|-------------------------------|
|----------------------------|-------------------------------|
|--9-------------------------|--(9)--------------------------|
|----------------------------|-------------------------------|
|----------------------------|-------------------------------|
|----------------------------|-------------------------------|


    |--3--| |-3-| |3| |-3-|   |--3--| |-3-| |3| |-3-|   |3| |-3-| |-3-|
    E  E  E E E E Q E E E E   E +E  E E E E Q E E E E   Q E E E E Q Q Q
||--------------------------|-------------------------|-----------------|
||o-------------------------|-------------------------|-----------------|
||--------------------------|-------------------------|-----------------|
||--------------------------|-------------------------|-------------4---|
||o-4-(4)---------5---------|-4-(4)---------5---------|-2---------5-2-5-|
||--0--2--2-2-2-2-3-2-2-2-2-|-2-(2)-2-2-2-2-3-2-2-2-2-|-0-0-0-0-0-3---3-|


  |--3--| |-3-| |3| |-3-|   |--3--| |-3-| |3| |-3-|         |-3--|
  E  E  E E E E Q E E E E   E  E  E E E E Q E E E E   H    +Q  Q Q
|-------------------------|-------------------------|---------------||
|-------------------------|-------------------------|-3----(3)-----o||
|-------------------------|-------------------------|-2----(2)------||
|-------------------------|-------------------------|-0----(0)------||
|-4-(4)---------5---------|-4-(4)---------5---------|-0----(0)-5-7-o||
|-0--2--2-2-2-2-3-2-2-2-2-|-0--2--2-2-2-2-3-2-2-2-2-|----------3-5--||


    |-----6-----| |----6----|   |3|
    E  E  E E E E E E E E E E   Q H  +H
||----------------------------|-------------|
||o---------------------------|-------------|
||----------------------------|-------------|
||----------------------------|-------------|
||o-4-(4)---------------------|-7-6--(6)----|
||--0h=2--2-2-2-2-2-2-2-2-2-2-|-5-4--(4)----|


  |-----6-----| |----6----|   |-3-|
  E  E  E E E E E E E E E E   Q Q Q H
|---------------------------|-------------||
|---------------------------|------------o||
|---------------------------|-------------||
|-4-(4)---------------------|-7-6-7-9-----||
|-0h=2--2-2-2-2-2-2-2-2-2-2-|-5-4-5-7----o||
|---------------------------|-------------||


    |--3--| |-3-| |3| |-3-|   |--3--| |-3-| |3| |-3-|   |3| |-3-| |-3-|
    E  E  E E E E Q E E E E   E +E  E E E E Q E E E E   Q E E E E Q Q Q
||--------------------------|-------------------------|-----------------|
||o-------------------------|-------------------------|-----------------|
||--------------------------|-------------------------|-----------------|
||--------------------------|-------------------------|-------------4---|
||o-4-(4)---------5---------|-4-(4)---------5---------|-2---------5-2-5-|
||--0--2--2-2-2-2-3-2-2-2-2-|-2-(2)-2-2-2-2-3-2-2-2-2-|-0-0-0-0-0-3---3-|


  |--3--| |-3-| |3| |-3-|   |--3--| |-3-| |3| |-3-|         |-3--|
  E  E  E E E E Q E E E E   E  E  E E E E Q E E E E   H    +Q  Q Q
|-------------------------|-------------------------|---------------||
|-------------------------|-------------------------|-3----(3)-----o||
|-------------------------|-------------------------|-2----(2)------||
|-------------------------|-------------------------|-0----(0)------||
|-4-(4)---------5---------|-4-(4)---------5---------|-0----(0)-5-7-o||
|-0--2--2-2-2-2-3-2-2-2-2-|-0--2--2-2-2-2-3-2-2-2-2-|----------3-5--||


  |-----6-----| |----6----|   |3|
  E  E  E E E E E E E E E E   Q H  +H
|---------------------------|-------------|
|---------------------------|-------------|
|---------------------------|-------------|
|---------------------------|-------------|
|-4-(4)---------------------|-7-6--(6)----|
|-0h=2--2-2-2-2-2-2-2-2-2-2-|-5-4--(4)----|


  |-----6-----| |----6----|   |-3-|
  E  E  E E E E E E E E E E   Q Q Q H
|---------------------------|------------|
|---------------------------|------------|
|---------------------------|------------|
|-4-(4)---------------------|-7-6-7-9----|
|-0h=2--2-2-2-2-2-2-2-2-2-2-|-5-4-5-7----|
|---------------------------|------------|


  |-----6-----| |----6----|   |3|
  E  E  E E E E E E E E E E   Q H  +H
|---------------------------|-------------|
|---------------------------|-------------|
|---------------------------|-------------|
|---------------------------|-------------|
|-4-(4)---------------------|-7-6--(6)----|
|-0h=2--2-2-2-2-2-2-2-2-2-2-|-5-4--(4)----|


                             6/4
  |-----6-----| |----6----|   |-3-|  |-3--|  |--3--|
  E  E  E E E E E E E E E E   Q Q Q  Q Q  Q  Q  Q  Q
|---------------------------|-------------------------|
|---------------------------|-------------------------|
|---------------------------|-------------------------|
|-4-(4)---------------------|-7-6-7--9----7--6-----6--|
|-0h=2--2-2-2-2-2-2-2-2-2-2-|-5-4-5--7-7--5--4--7--4--|
|---------------------------|----------5--------5-----|


  Q=100
5/4                        4/4
  S S S S E E e e Q  S S E   S S S S E E E S S E E
|--------------------------|-----------------------|
|--------------------------|-----------------------|
|--------------------------|-----------------------|
|---------6-6---4-4------4-|-------------------9-7-|
|-4-4-4-4-4-4---2-2--2-2-2-|---------4-7-7-----7-5-|
|-------------2------------|-2-2-2-2-2-5-5-2-0-----|


5/4                        4/4
  S S S S E E e e Q  S S E   S S S S E E E S S E E
|--------------------------|------------------------|
|--------------------------|------------------------|
|--------------------------|------------------------|
|---------6-6---4-4------4-|-------------------9-7--|
|-4-4-4-4-4-4---2-2--2-2-2-|---------4-7-7-----7-5--|
|-------------2------------|-2-2-2-2-2-5-5-2-0------|


5/4
  S S S S E E e e Q  S S E   S S S S E E E S S Q  Q
|--------------------------|-------------------------|
|--------------------------|-------------------------|
|--------------------------|-------------------------|
|---------6-6---4-4------4-|-------------------9--7--|
|-4-4-4-4-4-4---2-2--2-2-2-|---------4-7-7-----7--5--|
|-------------2------------|-2-2-2-2-2-5-5-2-0-------|


                            4/4
  S S S S E E e e Q  S S E   S S S S E E E S S E E
|--------------------------|--------------------------|
|--------------------------|--------------------------|
|--------------------------|--------------------------|
|---------6-6---4-4------4-|-------------------9-7----|
|-4-4-4-4-4-4---2-2--2-2-2-|---------4-7-7-----7-5----|
|-------------2------------|-2-2-2-2-2-5-5-2-0--------|


                                                         2/4
    Q  E E S S S S E S S   S S S S E S S S  S  S S E E    S  S  S S E E  3x
||-----------------------|------------------------------|----------------||
||o----------------------|------------------------------|---------------o||
||-----------------------|------------------------------|----------------||
||--6--6-6---------4-----|---------2-----------------2--|-------------9--||
||o-4--4-4-2-2-2-2-2-2-2-|-0-0-0-0-0-0-0-4-(4)-----4-0--|-4-(4)-----4-7-o||
||-----------------------|---------------0--2--2-2-2----|-0--2--2-2-2----||


4/4
  Q  E E S S S S E S S   S S S S E S S S S S S E S S
|----------------------|-----------------------------|
|----------------------|-----------------------------|
|----------------------|-----------------------------|
|-6--6-6---------4-----|---------2-------------4-----|
|-4--4-4-2-2-2-2-2-2-2-|-0-0-0-0-0-0-0-2-2-2-2-2-2-2-|
|----------------------|-----------------------------|


                         Q=80 Q=60
                        3/4
  Q  E E S S S S E S S   Q.   Q.
|----------------------|----------|
|----------------------|----------|
|----------------------|----------|
|-6--6-6---------4-----|-6----4---|
|-4--4-4-2-2-2-2-2-2-2-|-4----2---|
|----------------------|----------|


  Q=50
  W
|------|
|------|
|------|
|-6----|
|-4----|
|------|

Обозначение длительности нот: W — целая; H — половинная; Q — четвертная; E — восьмая; S — шестнадцатая; T — тридцатьвторая; X — шестьдесятчетвёртая; a — короткий форшлаг. + — нота связана с предыдущей (залигованная нота); . — нота с точкой; .. — нота с двумя точками. Строчная буква означает, что это — стаккато (1/2 длительности). Обособленные группы длительностей записаны над линей обозначения длительности. Символ обозначения длительности всегда находится строго над нотой, то есть номером лада, соответствующем ей. Буквы без номера лада под ними обозначают паузы. Составные паузы записаны в форме Wxn, где n — количество тактов паузы.

Обозначения на табулатуре:
h — хаммер-он;
p — пул-офф;
b — бенд;
pb — пребенд;
r — возврат струны (если нет числа после «r», значит, струна отпускается сразу же);
/\ — слайд к данному ладу или от него (из «ниоткуда» или в «никуда»);
s — слайд с легато;
S — шифт-слайд;
<n> — натуральный флажолет;
[n] — искусственный флажолет;
n(n) — флажолет от удара пальцем правой руки по струне;
~ — вибрато;
tr — трель;
T — теппинг;
TP — тремоло медиатором;
PM — глушение ладонью правой руки;
\n/ — быстрое нажатие на кнопку тремоло; n = количество нажатий;
\n — вдавить кнопку тремоло;
n/ — поднять кнопку тремоло;
/n\ — обратное нажатие;
= — держать бенд или включенный эффект;
<> — работа ручкой громкости на гитаре (крещендо/диминуэндо);
x — приглушение струны для получения щёлкающего звука;
o — одна звучащая струна, остальные приглушены.

Дополнительные обозначения:
| — тактовая черта;
|| — двойная тактовая черта;
||o — начало повтора;
o|| — конец повтора.

Маркеры темпа: = BPM (число ударов в минуту) (8/16=s8/s16), где s8 = свинговые восьмые, s16 = свинговые шестнадцатые.

В виде .txt-файла

Защитный код

 
Быстрый вход