Табулатура «Innocence» для гитары

Авторы табулатуры — Тим Мессик (Tim Messick, messick[собака]cs.ucla.edu), Марк Роулинг (Mark Rawling, mwr[собака]mel.dit.csiro.au).

Примечание Марка Роулинга: «Здесь улучшенная версия этой превосходной песни Fates Warning. Она задаёт настрой блестящей Ivory Gate of Dreams. Я не возьму на себя смелость утверждать, что записал всё идеально нота-в-ноту. Спасибо Тиму Мессику за его оригинальную табулатуру и прекрасный вкус».

Акустика, в классическом стиле (предпочтительны нейлоновые струны), ринг-аут. Строй: все струны понижены на полутон: 6 — 1 = Eb Ab Db Gb Bb Eb.

------------5-------3--1-----3-$----0---1-$---0---------------------------
-------1/3-------------------0-$--------3-$-------3--1--------------------
-------2/4-------------------0-$--------2-$----------------2-$------------
-----------------------------2-$--------0-$----------------2-$------------
---0-------------------------------------------------------0-$------------
--------------------------------------------------------------------------

------------5-------3--1-----3-$----0---1-$---0---------------------------
-------1/3-------------------0-$--------3-$-------3--0--------------------
-------2/4-------------------0-$--------2-$----------------------2--------
-----------------------------2-$--------0-$-------------------2-----------
---0-------------------------------------------------------0--------------
--------------------------------------------------------------------------

---0-$--------------7--5-$------------------------------------------------
---0-$----6---8--------5-$----------------8--7-$---5\-3-6---------5-$-----
---5-$-----------------5-$-------------------7-$------------------5-$-----
---5-$-----------------7-$-------------------6-$---------------5----------
---3-$------------------------8--7~-------------------------3-------------
--------------------------------------------------------------------------

---0-$--------------7--5-$------------------------------------------------
---0-$----6---8--------5-$----------------8--7-$---5~~~\(3)--3----0-------
---0-$-----------------5-$-------------------7-$--------------------------
---5-$-----------------7-$-------------------6-$--------------------------
---3-$------------------------8--7~---------------------------------------
--------------------------------------------------------------------------

Фигура 1:

   Гитара I:
|------------------------------------------------------------------------|
|---------------1---------------1---------------0---------------0--------|
|-----------2---------------2---------------2---------------2------------|
|-------2---------------2---------------2---------------2----------------|
|---0--------------------------------------------------------------------|
|-------------------3---------------3---------------1--------------------|
|                                                                        |  
|  Гитара II:                                                            |
|------------------------------------------------------------------------|
|---------------0---1~~-------------0------------------------------------|
|-----------2-----------------------------------2-0-2--------------------|
|-------2*----------------------------------------------2----------------|
|---0**------------------------------------------------------------------|
|------------------------------------------------------------------------|
      * только в первый раз                                 
     ** только во второй раз                                
                                                                         
   Гитара I:                                                              
|------------------------------------------------------------------------|
|---------------1---------------1---------------0------------------------|
|-----------2---------------2---------------2-------0--------------------|
|-------2---------------2---------------2---------------2----------------|
|---0---------------3---------------2-----------------------2------------|
|---------------------------------------------------------------3--------|
|                                                                        |  
|  Гитара II:                                                            |  
|---------------------------------------------------0---1---0------------|
|---------------0---1~~-------------3~----------1-3----------------------|
|-----------2------------------------------------------------------------|
|-------2*---------------------------------------------------------------|
|---0**------------------------------------------------------------------|
|------------------------------------------------------------------------|
      * только в первый раз
     ** только во второй раз

Конец фигуры 1

Повтор фигуры 1

Завершение:

   Гитара I:
|------------------------------------------------------------------------|
|---------------------4-----------------------4--------------------------|
|---------------2-----------2-----------2-----------2--------------------|
|---------4-----------------------4-----------------------4--------------|
|------------------------------------------------------------------------|
|---2--------------------------------------------------------------------|
|                                                                        |  
|  Гитара II: (с небольшой задержкой)                               |
|------------------------------------------------------------------------|
|----4~\---------0-----------2~----------------4~------------------------|
|------------------------------------------------------------------------|
|------------------------------------------------------------------------|
|------------------------------------------------------------------------|
|------------------------------------------------------------------------|

--------------------------------------------------------0-$---------------
--------------------------------------------------------0-$---------------
----------------------------------------0---------------0-$---------------
----------------------------4---------------------------4-$---------------
----------------2---------------------------------------2-$---------------
----0---------------------------------------------------0-$---------------


                           =======///=======


Вот и всё, но вот вам фигура 1 и завершение для одной гитары...

Фигура 1:

--------------------------------------------------------------------------
---------------1---1-----------1---0-----------0---------------0----------
-----------2---------------2---------------2-----0-2-------2--------------
-------2---------------2---------------2---------------2------------------
---0----------------------------------------------------------------------
-------------------3---------------3---------------1----------------------
                                
---------------------------------------------------0---1---0--------------
---------------1---1-----------1---3-----------1-3------------------------
-----------2---------------2---------------2-------0----------------------
-------2---------------2---------------2---------------2------------------
---0---------------3---------------2-----------------------2--------------
---------------------------------------------------------------3----------

Конец фигуры 1

Завершение:

--------------------------------------------------------------------------
----4*----------0*---4------2*---------------4----------------------------
---------------2-----------2-----------2-----------2----------------------
---------4-----------------------4-----------------------4----------------
--------------------------------------------------------------------------
---2----------------------------------------------------------------------
     * нота берётся с небольшой задержкой
         
-------------------------------------------------------0-$----------------
-------------------------------------------------------0-$----------------
---------------------------------------0---------------0-$----------------
---------------------------4---------------------------4-$----------------
---------------2---------------------------------------2-$----------------
---0---------------------------------------------------0-$----------------

Обозначения:
~~ — вибрато;
^ — Бенд (высота подтяжки отмечена сверху; 1/2 = полутон, 1 = целый тон);
v — Конец бенда (без повторного взятия ноты);
$ — Арпеджированный аккорд;
\, / — Слайды;
p11 — Пул-офф на 11 ладу;
h13 — Хаммер-он на 13 ладу;
...и т.д...

Удачи. Я думаю, этот альбом (No Exit) — один из лучших музыкальных опытов всех времён... Так что я прямо сейчас пойду его послушаю!

В виде .txt-файла

Защитный код

 
Быстрый вход