Табулатура «Quietus» для гитары

Автор табулатуры — Тиму Хапанен (Teemu Haapanen, thaapanen[собака]pp.nic.fi).

Строй гитары понижен на полутон.

 Интро (акустика) (3 раза)               Затем
|-----------0-----------0-----------0--|----------0----------|
|*----0-----------0-----------0-------*|----0--------------9-|
|--------6-----------8-----------8-----|-------6-----8--6----|
|--7-----------6-----------------------|-7-------------------|
|*-------------------------9----------*|---------------------|
|--------------------------------------|---------------------|
  
 Куплет 1 (акустика)
|----------------------------------0-------------------------------------------------------------|
|-------4--0--------4--0--------2--------0-----2--------4--0--------4--0-----------4-----0-----4-|
|----4-----------4-----------4--------------2--------4-----------4--------------6-----------2----|
|----------------------------------------------------------------------------7-------------------|
|-4-----------2-----------0-----------2-----------4-----------2-----------0-----------2----------|
|------------------------------------------------------------------------------------------------|

|----------0-----------------------0-----------------------------------------------0--------4-|
|-------4-----------4--0--------2--------0-----2--------4--0--------4--0--------2-----4--2----|
|----4-----------4-----------4--------------2--------4-----------4-----------2----------------|
|---------------------------------------------------------------------------------------------|
|-4-----------2-----------0-----------2-----------4-----------2-----------0-------------------|
|---------------------------------------------------------------------------------------------|
  
|----------0--------------------0-----------0-----------0-----------2-----------2----|
|----0--2-----4--2--0--------------4-----0-----2-----0-----2-----------4-----------4-|
|----------------------1-----4-----------------------------------4-----------4-------|
|------------------------------------------------------------------------------------|
|-2-----------------------2-----------4-----------2-----------2-----------2----------|
|------------------------------------------------------------------------------------|

|--------------------4-|
|----4-------4---2-----|
|----------------------|
|----------------------|
|-2------4-------------|
|----------------------|

  Рифф 1 (гитара 1) (2 раза)
|------------------------------------------------|
|*----------------------------------------------*|
|------------------------------------------------|
|--10\9----10--10\9-----9--10\9-----9--10--9--7--|
|*--8\7-00--8---8\7-00--7---8\7-00--7---8--7--5-*|
|------------------------------------------------|
|	..          ..          ..               |
|  		                                 |
| Рифф 1 (гитара 2) (2 раза)		 	 |
|------------------------------------------------|
|*----------------------------------------------*|
|------------------------------------------------|
|--10\9--------10\9--------10\9--------10--9--7--|
|*--8\7-000000--8\7-000000--8\7-000000--8--7--5-*|
|------------------------------------------------|
        ......      ......      ......

  Рифф 2 (гитара 1) (2 раза)                      (второй)
|------------------------------------------------|-------|
|*----------------------------------------------*|-------|
|------------------------------------------------|-------|
|--10\9----10--10\9-----9--10\9-----9--10--9--7--|-2-(2)-|
|*--8\7-00--8---8\7-00--7---8\7-00--7---8--7--5-*|-0-(0)-|
|------------------------------------------------|-------|
|       ..          ..          ..                       |
|      						         |
| Рифф 2 (гитара 2) (2 раза)                     (второй)|
|------------------------------------------------|-------|
|*----------------------------------------------*|-------|
|------------------------------------------------|-------|
|------------------------------------------------|-------|
|--10-----------7-----------12---------10--9--7--|-2-(2)-|
|*--8-----------5-----------10----------8--7--5-*|-0-(0)-|
|------------------------------------------------|-------|

  Рифф в куплете 1 (гитара 1)
|----------------------------------------------------|
|----------------------------------------------------|
|----------------------7~---5--4--5-(5)~-------------|
|-7-(7)~--5-7--5-(5)~--------------------------2-(2)-|
|----------------------------------------3--2--0-(0)-|
|----------------------------------------1--0--------|
|
|----------------------------------------------|
|----------------------------------------------|
|----------------------7~---5--4--5-(5)~-------|
|-7-(7)~--5-7--5-(5)~--------------------------|
|----------------------------------------3--2--|
|----------------------------------------1--0--|
|
| Рифф в куплете 1 (гитара 2)
|-----------------------------------------------------|
|-----------------------------------------------------|
|-----------------------10~--9--7--9-(9)~-------------|
|-10-(10)~-9-10--9-(9)~-------------------------2-(2)-|
|-----------------------------------------3--2--0-(0)-|
|-----------------------------------------1--0--------|
|
|-----------------------------------------------|
|-----------------------------------------------|
|-----------------------10~--9--7--9-(9)~-------|
|-10-(10)~-9-10--9-(9)~-------------------------|
|-----------------------------------------3--2--|
|-----------------------------------------1--0--|

  Рифф 1 (гитара 1) (2 раза)                      (второй)
|------------------------------------------------|-------|
|*----------------------------------------------*|-------|
|------------------------------------------------|-------|
|--10\9----10--10\9-----9--10\9-----9--10--9--7--|-2-(2)-|
|*--8\7-00--8---8\7-00--7---8\7-00--7---8--7--5-*|-0-(0)-|
|------------------------------------------------|-------|
|	..          ..          ..                       |
|  		                                         |
| Рифф 1 (гитара 2) (2 раза)			 (второй)|
|------------------------------------------------|-------|
|*----------------------------------------------*|-------|
|------------------------------------------------|-------|
|--10\9--------10\9--------10\9--------10--9--7--|-2-(2)-|
|*--8\7-000000--8\7-000000--8\7-000000--8--7--5-*|-0-(0)-|
|------------------------------------------------|-------|
        ......      ......      ......

  Рифф в куплете 2 (гитара 1) (2 раза)
|------------------------------------------------------|
|*----------------------------------------------------*|
|-----------------------7~---5--4--5-(5)~--------------|
|--7-(7)~--5-7--5-(5)~--------------------------2-(2)--|
|*----------------------------------------3--2--0-(0)-*|
|-----------------------------------------1--0---------|
|
|
| Рифф в куплете 2 (гитара 2) (2 раза)
|-------------------------------------------------------|
|*-----------------------------------------------------*|
|------------------------10~--9--7--9-(9)~--------------|
|--10-(10)~-9-10--9-(9)~-------------------------2-(2)--|
|*-----------------------------------------3--2--0-(0)-*|
|------------------------------------------1--0---------|

 Рифф 3 (гитары 1 и 2)
|------------------------|
|------------------------|
|------------------------|
|-----2-----2-------2----|
|-3---0--5--0---3---0--5-|
|-1------3------1------3-|

  Интерлюдия (гитара 1)
|-----------------------------------------|-----------------------------------------|
|-----------------------------------------|-----------------------------------------|
|-5---5-9-7---5-----------5---5-9-7---5---|-5---5-9-7---5-----------5---5-9-7---5---|
|---7-------9---7-5-7-5-----7-------9---7-|---7-------9---7-5-7-5-----7-------9---7-|
|-----------------------7-----------------|-----------------------7-----------------|
|-----------------------------------------|-----------------------------------------|
|									            |
| Интерлюдия (гитара 2)								    |
|-----------------------------------------|-----------------------------------------|
|-----------------------------------------|-----------------------------------------|
|-2---2-5-4---2-----------2---2-5-4---2---|-2---2-5-4---2-----------2---2-5-4---2---|
|---3-------5---3-2-3-2-----3-------5---3-|---3-------5---3-2-3-2-----3-------5---3-|
|-----------------------3-----------------|-----------------------3-----------------|
|-----------------------------------------|-----------------------------------------|

 Рифф в куплете 3 (2 раза)
|-----------------------------------------------------------------------------------------------|
|*---------------------------------------------------------------------------------------------*|
|-----------------------------------------------------------------------------------------------|
|--2---------------------------------------5--7--2----------------------------------------------|
|*-0-00-0-00-0-00-0-00-3-------------------3--5--0-00-0-00-0-00-0-00-3-------------------5-(5)-*|
|----------------------1-11-1-11-1-11-1-11---------------------------1-11-1-11-1-11-1-11-3-(3)--|
     .. . .. . .. . ..   .. . .. . .. . ..         .. . .. . .. . ..   .. . .. . .. . ..
 
 Интерлюдия

 Рифф в куплете 3 (2 раза)

 Интерлюдия

  Интерлюдия (гитара 1)
|-----------------------------------------|-----------------------------------------|
|-----------------------------------------|-----------------------------------------|
|-5---5-9-7---5-----------5---5-9-7---5---|-5---5-9-7---5-----------5---5-9-7---5---|
|---7-------9---7-5-7-5-----7-------9---7-|---7-------9---7-5-7-5-----7-------9---7-|
|-----------------------7-----------------|-----------------------7-----------------|
|-----------------------------------------|-----------------------------------------|
|									            |
| Интерлюдия (гитара 2)								    |
|-----------------------------------------|-----------------------------------------|
|-----------------------------------------|-----------------------------------------|
|-2---2-5-4---2-----------2---2-5-4---2---|-2---2-5-4---2-----------2---2-5-4---2---|
|---3-------5---3-2-3-2-----3-------5---3-|---3-------5---3-2-3-2-----3-------5---3-|
|-----------------------3-----------------|-----------------------3-----------------|
|-----------------------------------------|-----------------------------------------|
|										    |
| Интерлюдия (гитара 3)   							    |
|-----------------------------------------------------------------------------------|
|-----------------------------------------------------------------------------------|
|-----------------------------------------------------------------------------------|
|-2-----------------------2-----------------2-----------------------2---------------|
|-0-----------3-----------0-------5---------0-----------3-----------0-------5-------|
|-------------1-------------------3---------------------1-------------------3-------|

 (гитара 1) 
|----------|
|----------|
|-5~-(5)~--|
|----------|
|----------|
|----------|
|          |
|(гитара 2)|
|----------|
|----------|
|----------|
|-2~-(2)~--|
|----------|
|----------|
|          |
|(гитара 3)|
|----------|
|----------|
|----------|
|-2--(2)---|
|-0--(0)---|
|----------|

 Завершение (Клавишные)

Обозначения:
. - глушение ладонью;
~ — вибрато;
\ - слайд вниз;
(5) - призрачная нота.

В виде .txt-файла

Защитный код

 
Быстрый вход