Табулатура «Leave The Past Behind» для гитары

Автор табулатуры — Дэрил Митчелл (Daryl Mitchell, hmprimerib[собака]hotmail.com).

E------------------------------------0---------------------------
B-----2-----0------2-----0--------0------------------------------
G------------------------------2---------------------------------
D--4-----4------4-----4-----2------------------------------------
A----------------------------------------------------------------
E----------------------------------------------------------------

            "and here we are again.."
E------------------------------------0------------2--------------
B-----2-----0------2-----0--------0------------2-----------------
G------------------------------2------------4--------------------
D--4-----4------4-----4-----2------------4-----------------------
A----------------------------------------------------------------
E----------------------------------------------------------------

играется 8 раз (следующий рифф играется после второго повтора)
E----------------------------------------------------------------
B----------------------------------------------------------------
G----------------------------------------------------------------
D--------------------------------2-------------------------------
A-----4-----2--4-----4-----2--4----------------------------------
E--2-----2--------2-----2----------------------------------------

играется после второго повтора предыдущего
E--------------------------------0-------------------------------
B-----2--------2-----2--------2----------------------------------
G-----------4--------------4-------------------------------------
D--4-----4--------4-----4----------------------------------------
A----------------------------------------------------------------
E----------------------------------------------------------------

отрывистые аккорды стаккато играются поверх предыдущего риффа (4 раза)

Версия 1 (смотрите ниже вторую версию):
(я добавил немного дроуна для красоты :)
E--0-----7----0----0---------------------------------------------
B--9-----10---12---9---------------------------------------------
G--8-----9----11---8---------------------------------------------
D--6-----7----9----6---------------------------------------------
A----------------------------------------------------------------
E----------------------------------------------------------------

рифф припева (3 раза)
E--0-----0---7-----0---0-----------------------------------------
B--9-----12--10----7---9-----------------------------------------
G--8-----11--9-----6---8-----------------------------------------
D--6-----9---7-----4---6-----------------------------------------
A----------------------------------------------------------------
E----------------------------------------------------------------

Конец версии 1

Версия 2:
(не могу решить, какая звучит лучше)
E--4-----5----7----4---------------------------------------------
B--4-----5----7----4---------------------------------------------
G--6-----7----9----6---------------------------------------------
D----------------------------------------------------------------
A----------------------------------------------------------------
E----------------------------------------------------------------

рифф припева (3 раза)
E--4-----7---5-----2---4-----------------------------------------
B--4-----7---5-----2---4-----------------------------------------
G--6-----9---7-----4---6-----------------------------------------
D----------------------------------------------------------------
A----------------------------------------------------------------
E----------------------------------------------------------------

Конец версии 2

переход припева (завершает припев и служит вступлением к риффу куплета)
E--0-----0---7-----0------2--------------------------------------
B--9-----12--10----12-----2--------------------------------------
G--8-----11--9-----11-----4--------------------------------------
D--6-----9---7-----9------4--------------------------------------
A-------------------------2--------------------------------------
E----------------------------------------------------------------

куплет (да, это то же самое, что и в начале)

               "it's time to make a change..."
E------------------------------------0---------------------------
B-----2-----0------2-----0--------0------------------------------
G------------------------------2---------------------------------
D--4-----4------4-----4-----2------------------------------------
A----------------------------------------------------------------
E----------------------------------------------------------------

E------------------------------------0------------2--------------
B-----2-----0------2-----0--------0------------2-----------------
G------------------------------2------------4--------------------
D--4-----4------4-----4-----2------------4-----------------------
A----------------------------------------------------------------
E----------------------------------------------------------------

бридж (арпеджированные аккорды 2 гитары)
     "I stood at the door..."
E--------------4----2---4----------------2-----------------------
B--------------4----2---4----------------2-----------------------
G--2-----------6----4---6-------2--------4-----------------------
D--2-----------6----4---6-------2--------4-----------------------
A--0-----------4----2---4-------0--------2-----------------------
E----------------------------------------------------------------

снова играется рифф припева (и т.д.)

Все будущие части являются повторением предыдущих, за исключением соло, в котором ритм звучит примерно так:

F#5  E5  D5    E5

В виде .txt-файла

Защитный код

 
Быстрый вход