Табулатура «Life In Still Water» для гитары

Первая версия

Автор табулатуры — Райан Хэнсон (Ryan Hanson, Myglblmind[собака]aol.com).

Вступление:
-------------------------------------------------------------------
-------------------------------------------------------------------
-------------------------------------------------------------------
-------4-4-/-7--2-4----4----2--------------------------------------
-----4-----------------4----2--------------------------------------
---2-------------------2----0--------------------------------------


Куплет:
--------------------------------|-----------------------------------
--------------------------------|-----------------------------------
------------------2-------------|-------2---------------------------
---4--------------2--2--4-------|----4--2--2--4------------4--2-----
---4--------------0--2--4-------|----4--0--2--4------------4--2-----
---2-----------------0--2-------|----2-----0--2------------2--0-----


Бридж:
-------------------------------------------------------------------
-------------------------------------------------------------------
-------------------------------------------------------------------
------4-----4-----4------------4-----4-----4-----------------------
---------4-----5-----2--0---------4-----5-----2--0-----------------
---2------------------------2--------------------------------------


------0-------0---------4-------4----------------------------------
-------------------------------------------------------------------
---2-------2---------6------6--------------------------------------
---0-------0---------4------4-----------7--6--7--6-----0-----------
-------------------------------------------------------------------
-------------------------------------------------------------------

Припев:
-------------------------------------------------------------------
-------------------------------------------------------------------
-------------------------------------------------------------------
-----------4---7-------------------4-------------------------------
--------4---------------------4---------4--------------------------
----2---------------------2----------------------------------------


-------------------------------------------------------------------
-------------------------------------------------------------------
-----------------------------------2-------------------------------
-------------2--------------4------2-----2-------------------------
--------2---------2---------4------0-----2-------------------------
----0-----------------------2------------0-------------------------

В виде .txt-файла


Вторая версия

Автор табулатуры — Ренато Фонцеса (Renato Fonseca, ivory[собака]internetcom.com).

e:---------------------------------------------------------------------------|
B:---------------------------------------------------------------------------|
G:---------------------------------------------------------------------------|
D:------------4--S6--2--4----4----2----2------------4--S6--2--4-----4----2---|
A:------4--4-----------------4----2----0------4--4------------------4----2---|
E:---2-----------------------2----0--------2------------------------2----0---|



                      _______________________________________________________
      повтор 3 раза   |
e:-0-------------------------------------------------------------------------|
B:-0-------------------------------------------------------------------------|
G:---------------------------------------------------------------------------|
D:----------------------4----------------------2--------4--------------------|
A:----------------------4----------------------0--2-----4--------------------|
E:----------------------2-------------------------0-----2--------------------|
                        feeling the weight...           of unseen chains...


  ______________              _______________________________________________
                повтор        |
e:-------------------------------------------------2-------------------------|
B:----------------------------------------------------2--0--5A------------0A-|
G:------------------------------3------------------------------3-------2A----|
D:4----2-----------------2------4--------------------------------------------|
A:4----0--2--------------2------4--------------------------------------------|
E:2-------0--------------0---------------------------------------------------|
                                is a narrow path                   that we wa


  ____________________________
     |   1   повтор |   2    |
e:0A-----------------------------------2------------2---------3----------5---|
B:-------------------------------------2------------2---------3----------5---|
G:------3--------------------------------------------------------------------|
D:------4--------------4---2-------------------------------------------------|
A:---------------------4---2-----------------4--4---------5------------------|
E:---------------------2---0--------2-----------------------------5--5-------|
  lk



  повтор                                                    повтор
e:---------------------------------------------------------------------------|
B:----------3--5---3--5--3--7--9--------------------------------------5-----3|
G:----------2--2---2--2--2--6--6------------S6---4-----2--------------4-----2|
D:--------------------------------------------------------------------2-----0|
A:---------------------------------------------------------------------------|
E:---------------------------------------------------------------------------|
                   is there romm still      for us to grow



      припев>
e:---------------------------------------------------------------------------|
B:---------------------------------------------------------------------------|
G:----------------2-------------2-------1------2--1------------2-------------|
D:---------------4-------------4---------2-----2--2--2--------4--------------|
A:------------pm4-----------pm4-----pm2--------------2-----pm4------------pm4|
E:------------pm-----------pm2-----pm0--------------------pm2------------pm2-|
               living life...                              blinded by...



                                   повтор припева...   
e:-----------------------------------------|
B:-----------------------------------------|
G:-2--------1-----2--1--2------------------|
D:4----------2----2--2--2------------------|
A:------pm2--------------------------------|
E:-----pm0---------------------------------|

Ритм-гитара в соло такая же, как во вступлении. 

Обозначения:
pm — глушение ладонью;
s — слайд.

В виде .txt-файла

Защитный код

 
Быстрый вход