Табулатура «We Only Say Goodbye» для гитары

Автор табулатуры неизвестен.

Строй обычный, ключевой знак — Е-минор. Гитара 1 — Джим Матеос, гитара 2 — Фрэнк Арести.

Рифф 1 (обе гитары) *акустика
|----------|-------3-0--|
|----------|------------|
|-----0----|-----2------|
|-------2--|---2--------| Играется 2 раза
|---2------|-0----------|
|-0--------|------------|

Рифф 2A (дисторшн)
|------------------|-------------------|
|------------------|-------------------|
|------------------|----------5---9--7-|
|----5-------------|----5-----5---9--7-| Гитара 1
|---------------5--|----------3---7--5-|
|-0----------3-----|-0----------0------|

Рифф 2A (чистый)
|----0-------0-----|----0--------0-----|
|-------2-------2--|-------2-------2---|
|----------------4-|-----------------4-|
|------------------|-------------------| Гитара 2
|------------------|-------------------|
|------------------|-------------------|

Рифф 2B (дисторшн)
|------------------|------------------------|
|------------------|------------------------|
|------------------|----------5---7---------|
|----5-------------|----5-----5---7---5--2--| Гитара 1
|---------------5--|----------3---5---5--2--|
|-0----------3-----|-0----------0---0-3--0--|

Гитара 2 играет рифф 2A (чистый) поверх риффа 2B.

Рифф 3 (чистый) *куплет

«As I watched your shadow disappear»

Бренчащие аккорды
|-3----------|-0-------0--|
|-3----------|-3-----3----|
|-2----------|-2----------|
|------------|-0----------| Гитара 1
|------------|------------|
|------------|------------|
|
|
|---0----0---|---0-----3--|
|------3-----|-------3----|
|----------4-|------------|
|------------|------------| Гитара 2
|------------|------------|
|------------|------------|

Рифф 4
«I thought I heard you…»
|----------------|-----------------|
|-------8--------|-----------------|
|-5-----7-9------|-5-----9---------|
|-5-----5-9------|-5-----9---------| Гитара 1
|-3-------7------|-3-----7---------|
|----------------|-----------------|
|
|
|----0------0----|---0------3--2-0-|
|------3------3--|-----3-----------|
|----------------|-----------------|
|----------------|-----------------| Гитара 2
|----------------|-----------------|
|----------------|-----------------|

«But you only…»
|----------------|-------------|-------|
|-------8--------|-------------|-------|
|-5-----7-9-7----|-5-----9-----|-5---7-|
|-5-----5-9-7----|-5-----9-----|-5---7-| Гитара 1
|-3-------7-5----|-3-----7-----|-3---5-|
|----------------|-------------|-------|
|
|
|----0------0----|---0---------|-------|
|------3------3--|-----3-------|-------|
|----------------|-------------|-5---7-|
|----------------|-------------|-5---7-| Гитара 2
|----------------|-------------|-3---5-|
|----------------|-------------|-------|

Рифф 5
«Across the miles…»
|-----------------------|
|-----------------------|
|------4---5---12--9--7-|
|-7---------------------| Гитары 1 и 2
|------2---3---10--7--5-|
|-5---------------------|

«But it’s so hard…»
|-----------------------------|
|-----------------------------|
|------4---5---12-10--9--7--9-|
|-7---------------------------| Гитары 1 и 2
|------2---3---10--9--7--5--7-|
|-5---------------------------|

Соло – Джим
|---------|------------------------------------------|
|---------|------------------------------------------|
|---------|-9h11h12p11----9--7-----------------------|
|-7/9-\7~-|---------------------7--9-----7-----------|
|---------|---------------------------10---10--9-7-\-|
|---------|------------------------------------------|

|-------14-15-14-
|-15-17----------
|----------------
|----------------
|----------------
|----------------

-14^(15)—14p12--------------------------------------|
---------------15--12--15--12--8--10--8--7-7h8p7—5~-|
----------------------------------------------------|
----------------------------------------------------| Гитара 1
----------------------------------------------------|
----------------------------------------------------|

*Фрэнк подключается с гармонией
-17^(19)-17p15-14---------------------------------------|
-------------------15--17--15--12-13--12-10-10h12p10-8~-|
--------------------------------------------------------|
--------------------------------------------------------| Гитара 2
--------------------------------------------------------|
--------------------------------------------------------|

Обозначения:
h — хаммер-он;
p — пул-офф;
/ — восходящий слайд;
\ — ниспадающий слайд;
^ — бенд;
() — нота, до которой бенд;
r — отпускание бенда;
~ — вибрато.

В виде .txt-файла

Защитный код

 
Быстрый вход