Табулатура «Pale Fire» для гитары

Автор табулатуры — Дрю Шинзель (Drew Schinzel, analogkid82[собака]yahoo.com).

Примечание автора: «Ну, это довольно простая песня для исполнения. В ней есть несколько чистых партий во время припевов, которые были опущены. Кроме того, к этим риффам могут быть дополнительные аккорды, которые не трудно будет понять. Единственное, с чем следует быть повнимательнее — это ритм второго риффа. Хотя они часто его используют, ритм и темп пару раз меняются, так что имейте в виду».

              рифф 1                                 
|------------|---------------------------------------|
|------------|---------------------------------------|
|------------|---------------------------------------|
|------------|---------------------------------------|
|--7-8-7-----|--5~----7~----8~----5--7--3--0---------|
|------------|---------------------------------------|
                                                   
 рифф 2                                
|------------|-----------------------|
|------------|-----------------------|
|-7-----5----|--7-----5--------------|
|-7--8--5----|--7--8--5--5---7-------|
|-5--8--3----|--5--8--3--5---7-------|
|----6-------|-----6-----3---5-------|
                                          
  куплет                                                     
|-------|------------------------------------------------------|
|-------|------------------------------10----11----10----8-----|
|---7~--|---7-------------------5---------7~----9~---7~--7--9--|
|---7~--|---7-------------------5------------------------------|
|---5~--|---5-------------------3------------------------------|
|-------|------------------------------------------------------|
                                                      
 бридж                        
|------------------------------|
|------------------------------|
|------------------------------|
|--3----7----8----10-----------|
|--3----7----8----10-----------|
|--1----5----6-----8-----------|

Обозначения:
~ — вибрато.

В виде .txt-файла

Защитный код

 
Быстрый вход