Табулатура «Down To The Wire» для гитары

Автор табулатуры — Джесси Ринк (Jesse Rink, WalkerBoh[собака]aol.com).

Примечание автора: «Я понимаю, здесь может быть и не 100% точность, но чего вы ожидаете? Это чертовски близко, и вам понравится. Относительно короткие и повторяющиеся ритмы, и простое соло позволяют легко выучить песню».

Фигура 1
------------------------------------------------------------------------
12------10-----10---12-----10-----10---12-----10-----10---12-----10-----
---9-9-----9-9----9----9-9----9-9----9----9-9----9-9----9----9-9----9-9-
---x-x-----x-x----x----x-x----x-x----x----x-x----x-x----x----x-x----x-x-
------------------------------------------------------------------------
--Здесь лёгкое глушение-------------------------------------------------

                                              Конец фигуры 1
-----------------------------------------------------------|------------
10---12-----10-----10---12-----10-----10---12-----10-----10|--12---10-12
---9----9-9----9-9----9----9-9----9-9----9----9-9----9-9---|9----9------
--x-----x-x----x-x----x----x-x----x-x----x----x-x----x-x---|x----x------
-----------------------------------------------------------|------------
-----------------------------------------------------------|------------


--10--------10-------------------|-10/12--8/10---------10----10---------
-------13------12----------------|-------------8/10-------10----10/12-13
9----9----9-------9-9-9-9-9------|--------------------------------------
x----x----x-------x-x-x-x-x------|--------------------------------------
---------------------------------|--------------------------------------
---------------------------------|--------------------------------------


--P-------------------------10/12-10-------------------H-P------|-------
12-10---------------------------------10---12-10-8--7-7-8-7-----|-------
------12-11\9-11-9\7-9--------------------------------------9---|-------
-----------------------9\7--------------------------------------|-------
----------------------------------------------------------------|-------
----------------------------------------------------------------|-------

Куплет:
Oh....  Has it been so long...  I can't remember, what we last talked
------------------------------------------------------------------------
Фигура 2----------------------------------------------------------------
-------------------------------------------5-----------7----------------
----------------5-----------------5--------5-----------7----------------
7---------------5-----7-----------5------------------------------7------
7---------------------7------------------------------------------7------

about...     My... и т.д....
-----------------||--------------------------------------------||-------
-----Конец фиг. 2||-Фигура 3-----------------------Конец фиг. 3||-------
-----------------||:------------------------------------------:||-------
----------5------||:----------------------2-------------------:||-------
----------5------||-----2---3---5---2-3-5-------2---3----------||-------
----------3------||---0---0---0---0-----------0---0---0-3-5-0--||--5----
                          x       x               x
           Припев:
           I'll hold on..   Clutching to the hope that I'm still strong..
--------||---------------------------------------------------------------
------3-||-Фигура 4------------------------------------------------------
------5-||:-----7----------------------------5---------------------------
------5-||:--5--7---------------------5------5---------------------------
2-3---3-||-7-5--5-----------7---------5----------------------------------
--------||-7----------------7--------------------------------------------

     When it comes Down,   To The Wire.     2-й куплет...
----------------------------------------||-----------------------------|
----------------------------Конец фиг. 4||---Повтор фигуры 2, плюс-----|
-------------7---------------------(5)-:||---2-я гитара играет фиг. 1--|
-----5-------7----------------0----(5)-:||---(только октавой ниже)-----|
7----5-------5-------------3--0---7(3)--||---под ритм-гитарой----------|
7--------------------------3------7(3)--||-----------------------------|
                         1-й раз->^ ^<-2-й раз


-----------------|------------|-----------------|-----------------------
-Повтор фигуры 3-|---------3--|-Повтор фигуры 4-|-12-----10-----10------
-----------------|---------5--|-----------------|----9-9----9-9----9----
-----------------|---------5--|-----ПРИПЕВ------|-----------------------
-----------------|----2-3--3--|-----------------|-7-(не глушить, гит. 2)
-----------------|-5----------|-----------------|-7-(не глушить, гит. 2)


------------------------------------------------------------------------
12-----10-----10---12-----10-----10---12-----10-----10--------------8---
---9-9----9-9----9----9-9----9-9----9----9-9----9-9----9--7/9\7---9---5-
------------------------------------------------------------------------
------------------------------------------------------------------------
------------------------------------------------------------------------

                                           Соло
------------------------------------------|------------------12---------
-----------8-------H-P-H-P-H-P-H-P-H-P-H--|-(b)-15-(b)---------12-------
-4/5\4-----7--7---4-5-4-5-4-5-4-5-4-5-4-5-|-14-----14-\14-12-----12-----
-----------5--7---------------------------|------------------------12\--
--------------5---------------------------|-----------------------------
------------------------------------------|-----------------------------

                                (B)       P
--------------------------------14-14---15-14---------------------------
--------------------------14-15--------------15------15-----------------
---------7----------14/16----------------------16-14-------12----11-12--
-----------7/9\7--------------------------------------------------------
5/7-9-10----------------------------------------------------------------
------------------------------------------------------------------------

                                      I wish.....
---------14-12--|-----------------|-------------------------------------
10----12--------|-Повтор фигуры 3-|-----5-----3--------5------3--------5
---12-----------|-----------------|-----5-----5--------5------5--------5
----------------|-----------------|-----7-----5--------7------5--------7 
----------------|-----------------|-----7-----3--------7----2-3--------7
----------------|-----------------|--5--5---0-------5--5----------0-5--5

                                        Постепенное снижение громкости...
----------------3--|------------------||------------------------------||
---3-----5------3--|-Повтор фигуры 4--||-12---------10---------10-----||
---5-----5------5--|------------------||:---9-9-9-9----9-9-9-9----9-9:||
---5-----7------5--|------------------||:----------------------------:||
---3-----7--2-3-3--|------------------||--Гитара 2 играет это поверх--||
-0-----5-5---------|------------------||--фигуры 4...-----------------||

*КОНЕЦ*

Обозначения:
x — глушение;
/ — слайд вверх;
\ — слайд вниз;
p — пул-офф;
h — хаммер-он;
() — второй раз играть эту ноту;
(b) — бенд на целый тон;
(B) — бенд на полутон;
Я не стал добавлять обозначения вибрато, вы поймёте сами.

В виде .txt-файла

Защитный код

 
Быстрый вход