Табулатура «Afterglow» для гитары

Автор табулатуры — Дэрил Митчелл (Daryl Mitchell, hmprimerib[собака]hotmail.com).

Обычный строй.

Главный (куплет/начало/и др.) рифф (играется целую кучу раз):
чистая гитара
E--0-----------------------0-------------------------------------
B--------3-----------2-----------3-----------2-------------------
G------2---2-------2---2-------2---2-------2---2-----------------
D----5-------5---5-------5---5-------5---5-------5---------------
A--------------------------------------0-------------------------
E--------------0-------------------------------------------------

Припев:
E----------------------------------------------------------------
B--3-----3-----2-----2-----3-----3---5-2-----2-------------------
G----2------2----2------2----2-----------2-----------------------
D------0-----------0-----------0-----------0---------------------
A----------------------------------------------------------------
E----------------------------------------------------------------

E--------------------------------------0-------------------------
B--3-----3-----2-----2-----3-----3---5-2-------------------------
G----2------2----2------2----2---------2-------------------------
D------0-----------0-----------0-------0-------------------------
A----------------------------------------------------------------
E--------------------------------------3-------------------------

Соло в припеве 2 раза с большой задержкой (рифф для первого припева):
с дисторшном
E-------------------------2/3--3-3-5-----------------------------
B------------3-3/5-------------------3---------------------------
G---2--2-2-------------------------------------------------------
D----------------------------------------------------------------
A----------------------------------------------------------------
E----------------------------------------------------------------

Интерлюдия (в основном, жуткие октавы) — будьте внимательны с размером такта:
с дисторшном
E----------------------------------------------
B--4------5----------4-------------------------
G---------------4-----------7--6-4-6--4-2-6\4--
D--1------2----------1-------------------------
A---------------2------------------------------
E----------------------------------------------

E----------------------------------------------
B--4------5----------4-------------------------
G---------------4-----------7--6-4-6--4-2-4----
D--1------2----------1----------------------2/4
A---------------2------------------------------
E----------------------------------------------

Бридж-рифф (4 раза):
вокал:           I lie awake....
E--5-----3-----------2----
B------3---3-------3---3--
G----2-------2---2--------
D-------------------------
A--------------0----------
E-------------------------

Пост-бридж-рифф (2 раза, похож на главный рифф с большей тоникой),
поверх него есть небольшое соло, но я не стал с ним связываться:
E----------------------------------------------------------------
B--------3-----------2-----------3-----------2-------------------
G------2---2-------2---2-------2---2-------2---2-----------------
D----5-------5---5-------5---5-------5---5-------5---------------
A--------------------------------------0-------------------------
E--0-----------0-----------0-------------------------------------

Последний припев (сдвиг на полный тон):
E------------------------------------2---------------------------
B--5-----5-----4-----4-----5-----5-----4-----4-------------------
G----4------4----4------4----4-----------4-----------------------
D------2-----------2-----------2-----------2---------------------
A----------------------------------------------------------------
E----------------------------------------------------------------

E------------------------------------2---------------------------
B--5-----5-----4-----4-----5-----5-----4-------------------------
G----4------4----4------4----4---------4-------------------------
D------2-----------2-----------2-------2-------------------------
A----------------------------------------------------------------
E--------------------------------------5-------------------------

В виде .txt-файла

Защитный код

 
Быстрый вход