Табулатура «APSOG: Part IX» для гитары

Автор табулатуры — Скотт Фуллер (Scott Fuller, spacedye[собака]acay.com.au).

    Куплет                                         3 раза                
E----------3-----3-----2--|-----2--------3------------||
B----------3-----3-----3--|--------3-----------3------||
G---4:-----0-----0-----2--|-----------2-----------2--*||
D---4:-----0-----0-----0--|--------------------------*||
A----------2-----2-----0--|---------------------------||
E----------3-----3--------|---------------------------||
                                                                        
E---------0--0--|--0-----0--0-----0--------|
B---------0--0--|--1-----1--1-----1--------|
G---------0--0--|--0-----0--0-----0--------|
D---2--2--2--2--|--2-----2--2-----2--------|
A---2--2--2--2--|--3-----3--3-----3--------|
E---0--0--0--0--|--0-----0--0-----0--------|
                                                                        
E---------0-----0--0-------|--0--------------------------------||
B---------0-----0--0-------|--0--------------------------------||
G---------0-----0--0-------|--0--------------------------------||
D---------2-----2--2-------|--2--------------------------------||
A---------2-----2--2--0h2--|--3--------------------------------||
E---------0-----0--0-------|-----------------------------------||
                                                                        
Припев

     Я только записал здесь позиции аккордов.
     Просто играйте так же, как на CD.
                                                                  
E----------2--------|--2--------|--0--------|--0-----|-----2--------|
B----------3--------|--3--------|--1--------|--1-----|-----3--------|
G------3:--4--------|--4--------|--0--------|--0-----|-----4--------|
D------4:--4--------|--4--------|--2--------|--2-----|-----4--------|
A----------2--------|--2--------|--3--------|--3-----|-----2--------|
E----------2--------|--2--------|--0--------|--0-----|-----2--------|
                                                                        
                                    | Первый такт         || Второй
E-----2--------|-----------3--3-----|--0--------|--0------||-----0----|
B-----3--------|-----------3--3-----|--0--------|--0------||-----1----|
G-----4--------|-----------0--0-----|--0--------|--0-----*||-----2----|
D-----4--------|-----------0--0--0--|--2--------|--2-----*||-----2----|
A-----2--------|-----------2--2--0--|--2--------|--2------||-----0----|
E-----2--------|-----------3--3--2--|--0--------|--0------||-----0----|
                                                                        
E--0-----------|--0-----------|--0-----------||
B--0-----------|--1-----------|--0-----------||
G--2-----------|--2-----------|--2-----------||
D--2-----------|--2-----------|--2-----------||
A--0-----------|--0-----------|--0-----------||
E--0-----------|--0-----------|--0-----------||
                                                                        
Затем происходит возвращение к первому набору аккордов в куплете
на несколько тактов, а затем — назад к куплету. 
Аккорды под соло в основном такие же, как в припеве. 
 
========================================================================
==                       Расшифровка табулатуры                       ==
========================================================================

----------                ----------                ----t---
----5h8--- Хаммер-он      ----(8)--- Призрачная     ----6--- Тэппинг
----------                ---------- нота           --------
----5p8--- Пул-офф        ----------                --------

----------                ----------                -----p--
----5/8--- Слайд вверх    -----x---- Мёртвая        -----7-- Поп
----------                ---------- нота           --s-----
----5\8--- Слайд вниз     ----------                --5----- Слэп 

----------                ||------|| Повтор         --------
----5~~~-- Вибрато        ||*----*||                ---5^--- Бенд
----------                ||*----*||                --------
----------                ||------||                --------

----------                ----------                --------
-4:------- Размер         ----------                --------
-4:------- такта          ----------                --------
----------                ----------                --------

В виде .txt-файла

Защитный код

 
Быстрый вход