Табулатура «One» для гитары

Автор табулатуры — Гэри Регестер (Gary Regester, descry[собака]erols.com).

Вступление
=====

С дисторшном. Глушение ладонью до 9 такта включительно, затем медленное
отпускание ладони, пока струны полностью не освободятся к концу вступления.

                  14 раз
||-----------------||-----------------|-----------------|
||-----------------||-----------------|-----------------|
|*-----------------*|-----------------|---------------0-|
|*-----------------*|-9-----9-----9---|-9-----9-----9-0-|
||-7-----7-----7---||-7-----7-----7---|-7-----7-----7---|
||---0-0---0-0---0-||---0-0---0-0---0-|---0-0---0-0-----|

Рифф 1
======

Играть 8 раз

|-----------------------|
|-----------------------|
|-----------------------|
|-7/9---7/9---7/9--7/9--|
|-5/7---5/7---5/7--5/7--|
|-----------------------|

Куплет
=====

Чистая гитара с хорусом и фейзером.

  (натуральные флажолеты)

|-12------------------|
|-12------------------|
|-12------------------|   Пауза
|---------------------|
|---------------------|
|---------------------|

Пре-припев
==========

С дисторшном.

                  4 раза             4 раза
||----------------|||----------------||
||----------------|||----------------||
|*----------------*|*----------------*|
|*----------------*|*-7/9--7/9--7/9--*|
||-5h7--5h7--5h7--|||-5/7--5/7--5/7--||
||----------------|||----------------||

Припев
======
                                                                 2 раза
||----------|----------|----------------------|----------------------||
||----------|----------|----------------------|----------------------||
|*-5--------|-7--------|----------------------|----------------------*|
|*-5--------|-7--------|----------------------|----------------------*|
||-3--------|-5--------|-5/7---5/7---5/7--5/7-|-5/7---5/7---5/7--5/7-||
||----------|----------|-5/7---5/7---5/7--5/7-|-5/7---5/7---5/7--5/7-||

|-----------|----------|----------|----------|----------|----------|
|-----------|----------|-8--------|-5--------|----------|----------|
|-5---------|-7--------|-7--------|-4--------|-5--------|-7--------|
|-5---------|-7--------|-5--------|-2--------|-5--------|-7--------|
|-3---------|-5--------|----------|----------|-3--------|-5--------|
|-----------|----------|----------|----------|----------|----------|
                                  |          |
                                  |          |
                                  |-0--------|
           Альтернативный размер  |-0--------|
               для 2-го и 3-го    |-0--------|
               припевов---------->|----------|
                                  |----------|
                                  |----------|

Повтор первого риффа 8 раз.
Повтор куплета, пре-припева и припева (с альтернативным размером).

Средняя секция
==============

Всякий раз при взятии ноты на третьем ладу струна подтягивается
на четверть тона. При последнем взятии на пятом ладу струна также
подтягивается на четверть тона.

-----||-------------------|---------------------|
-----||-------------------|---------------------|
-----|*----------------2--|---------------------|
-----|*----2-----2-----2--|----2-----2----------|
-----||----2-----2-----0--|----2-----2----------|
-12\-||-3--0--3--0--3-----|-3--0--3--0--3/5-5-5-|
                                      PM-

                                          2 раза
|-------------------|---------------------||
|-------------------|---------------------||
|----------------2--|---------------------*|
|----2-----2-----2--|----2-----2----------*|
|----2-----2-----0--|----2-----2----------||
|-3--0--3--0--3-----|-3--0--3--0--3/5-5---||

Рифф 2
======

              16 раз
||-------------||----------|
||-------------||----------|
|*-------------*|----------|
|*-------------*|----------|
||----7-----5--||----------|
||-0-----3-----||-0--------|


Повтор пре-припева, куплета, пре-припева (пауза на последних 2 тактах), припева
(с альтернативным размером), второго риффа.

В виде .txt-файла

Защитный код

 
Быстрый вход