Табулатура «So» для гитары

Автор табулатуры — Гэри Регестер (Gary Regester, descry[собака]erols.com).

Строй понижен на тон (D A D G B E, от нижней струны к верхней).

Вступление (синтезаторная часть, переведённая для гитары)
=====

Нижняя нота D звучит протяжно. Извлеките снова, если нужно.

|-----|--------------|-----------------|---------------|
|-----|--------------|-----------------|---------------|
|-----|--5--7--------|--5--7-----------|---5--7--------|
|-----|--------6--7--|--------6--7-----|-0-------6--7--|
|-----|--------------|--------------8--|---------------|
|-0---|--------------|-----------------|---------------|

|---------------------|
|---------------------|
|---5--7--------------|
|-0-------6--7--------|
|---------------8b10--|
|---------------------|

Рифф 1
======

Сверху — партия гитары (с дисторшном). Снизу — партия синтезатора,
переведённая для гитары (пусть струна D звучит протяжно в каждом такте).

Играть 2 раза

|--------------------------|------------------------|
|---------------------0----|------------------------|
|---------------------2b4--|---------------------0--|
|--------------------------|---------------------0--|
|-------2---------2--------|-------2---------2---X--|
|-2-2-2-2---2-2-2-2--------|-2-2-2-2---2-2-2-2---5--|
| PM--|     PM--|          | PM--|     PM--|        |
|                          |                        |
|--------------------------|------------------------|
|-------15--17-------------|------15-17-------------|
|------------------15--16--|------------15---16--12-|
|-14-----------------------|-14---------------------|
|--------------------------|------------------------|
|--------------------------|------------------------|

|--------------------------|-------------------------|
|---------------------0----|-------------------------|
|---------------------2b4--|-------------------------|
|--------------------------|---------------------3-5-|
|-------2---------2--------|-------2---------2---3-5-|
|-2-2-2-2---2-2-2-2--------|-2-2-2-2---2-2-2-2---3-5-|
| PM--|     PM--|          | PM--|     PM--|         |
|                          |                         |
|--------------------------|-------------------------|
|-------15--17-------------|------15-17--------------|
|------------------15--16--|------------15---16------|
|-14-----------------------|-14-----------------15-17|
|--------------------------|-------------------------|
|--------------------------|-------------------------|

Куплет
=====

Вверху — с дисторшном. Внизу — чистая гитара (без глушения).

Играть 2 раза

|-----------------|--------------------|-----------------|
|-----------------|--------------------|-----------------|
|-----------------|--------------------|-----------------|
|-2---------------|--------------------|-----------------|
|-2---------------|--------------------|-----------------|
|-2---------------|--------------------|-----------------|
|                 |                    |                 |
|--------0--------|------0-------------|--------0--------|
|-----3--------0--|---3----------0-----|-----3--------0--|
|-----------3-----|---------3-------0--|-----------3-----|
|-----------------|--------------------|-----------------|
|-----------------|--------------------|-----------------|
|-2---------------|-2------------------|-2---------------|

|--------------------|
|--------------------|
|--------------------|
|----------------3-5-|
|----------------3-5-|
|----------------3-5-|
|                    |
|------0-------------|
|---3---------0------|
|---------3----------|
|--------------------|
|--------------------|
|-2------------------|

Пре-припев
==========

С дисторшном.
                                    >
|-------------------|------------------|
|-------------------|------------------|
|-------------------|------------------|
|-3---0---0-0--0-0--|-3---5---2-2-2-2--|
|-3---0---0-0--0-0--|-3---5---2-2-2-2--|
|-3---0---0-0--0-0--|-3---5---2-2-2-2--|
          PM-----|            PM----|

|-------------------|------------------|
|-------------------|------------------|
|-------------------|------------------|
|-3---0---0-0--0-0--|-3---5---5/6-5-3--|
|-3---0---0-0--0-0--|-3---5---5/6-5-3--|
|-3---0---0-0--0-0--|-3---5---5/6-5-3--|
          PM-----|

Припев
======
                                                 2 раза
||----------------------|------------------------||---------------|
||----------------------|------------------------||---------------|
|*----------------------|------------------------*|---------------|
|*-0--0--0--0-----------|-0--0--0--0----3p0-3/5--*|-0--0--0--0----|
||-0--0--0--0----5b6r5--|-0--0--0--0--0-3p0-3/5--||-0--0--0--0----|
||-0--0--0--0--0--------|-0--0--0--0--0-3p0-3/5--||-0--0--0--0----|
             PM                     PM

Повтор первого рифа, куплета, пре-припева и припева (пропустить последний такт припева).

Рифф 2
======

Играть 2 раза

|------------|------------|------------|-----------------|
|------------|------------|------------|-----------------|
|------------|------------|------------|-----------------|
|------------|-------5/7--|------------|------------3/5--|
|----3----3--|----3--3/5--|----3----3--|----3----3--3/5--|
|-0-----0----|-0----------|-0-----0----|-0-----0----3/5--|

Рифф 3
======
                                                        2 раза
||------------|------------|------------|---------------||------|
||------------|------------|------------|---------------||------|
|*------------|------------|------------|---------------*|------|
|*-0--3--0-5--|-0--3--5/6--|-0--3--0-5--|-0--3--5/6-3-3-*|-0----|
||-0--3--0-5--|-0--3--5/6--|-0--3--0-5--|-0--3--5/6-3-3-||-0----|
||-0--3--0-5--|-0--3--5/6--|-0--3--0-5--|-0--3--5/6-3-3-||-0----|

Средняя секция
==============

Здесь две гитары. Вот гитара с дисторшном...

|-----------------|
|-----------------|
|-----------------|
|-----------------|  Играть 8 раз
|-----------3h5---|
|-0-0-0-0---------|
  PM----|

|-----------------|
|-----------------|
|-----------------|
|-----------------|  Играть 8 раз
|-----------3h5---|
|-0-0-0-----------|
 PM-|

|-----------------|
|-----------------|
|-----------------|
|-----------------|
|-----------------|
|-0-0-0-----------|
 PM-|

Вот чистая гитара (с фейзером)...

|---|-------------|----------|-------------|----------|
|---|-------------|----------|-------------|----------|
|-7-|-12----12-11-|-7--7--7\-|-\5--5--10-8-|-7--7--7/-|
|---|-------------|----------|-------------|----------|
|---|-------------|----------|-------------|----------|
|---|-------------|----------|-------------|----------|

|--------------|----------|------------|----------|
|--------------|----------|------------|----------|
|-/12-12-12-11-|-7--7--7\-|-\5--5---8/-|-7--7--7/-|
|--------------|----------|------------|----------|
|--------------|----------|------------|----------|
|--------------|----------|------------|----------|

|--------------|----------|-------------|----------|
|--------------|----------|-------------|----------|
|-/12-12-12-11-|-7--7--7\-|-\5--5--10-8-|-7--7--7/-|
|--------------|----------|-------------|----------|
|--------------|----------|-------------|----------|
|--------------|----------|-------------|----------|

|----------------|----------|------------|----------|
|----------------|----------|------------|----------|
|-/(12)-12-12-11-|-7--7--7\-|-\5--5---8/-|-7--7--7--|
|----------------|----------|------------|----------|
|----------------|----------|------------|----------|
|----------------|----------|------------|----------|

Повтор третьего риффа (кроме последнего аккорда), припева, первого риффа,
куплета, пре-припева, припева (4 раза).

В виде .txt-файла

Защитный код

 
Быстрый вход